-------------------------------------------------------------------------------
SANITY - Bad Religion
-------------------------------------------------------------------------------

tabbed by Bruce Regan

FINNALY a real tab for this song not a damn bass tab, so enjoy!
There may be other lead parts that go along with this but I don’t have them done.
If you have any comments on this tab email me at [email protected]
Just kidding email me at [email protected]

A
|----------------------------------------------------|
|----------------------------------------------------|
|----------------------------------------------------|
|---7-7-7-7---9-9-9-9---10-10-10-10----12-12-12-12---|
|---7-7-7-7---9-9-9-9---10-10-10-10----12-12-12-12---|
|---5-5-5-5---7-7-7-7---8--8--8---8----10-10-10-10---|

B C
|---------------------| |---------------------|
|---------------------| |---------------------|
|---------------------| |---------------------|
|---7---9---10---12---| |---7---9---10---12---|
|---7---9---10---12---| |---x---x----x----x---|
|---5---7----8---10---| |---5---7----8---10---|

D
|-----------------------------------------------------------------------------------|
|-----------------------------------------------------------------------------------|
|-----------------------------------------------------------------------------------|
|---7-7-7-7---5-5-5-5---3-3-3-3---5-5-5-5---7-7-7-7---5-5-5-5---3-3-3-3---2-2-2-2---|
|---7-7-7-7---5-5-5-5---3-3-3-3---5-5-5-5---7-7-7-7---5-5-5-5---3-3-3-3---2-2-2-2---|
|---5-5-5-5---3-3-3-3---1-1-1-1---3-3-3-3---5-5-5-5---3-3-3-3---1-1-1-1---0-0-0-0---|

E
|---------------------------------|
|---------------------------------|
|---------------------------------|
|---7-7-7-7-7-7-7-7---5-5-5-5-5---|
|---7-7-7-7-7-7-7-7---5-5-5-5-5---|
|---5-5-5-5-5-5-5-5---3-3-3-3-3---|

Intro: A(2x), B(2x)




Ваше мнение



Капча