---------------------------------------------------------------------------------
RAISE YOUR VOICE - Bad Religion
---------------------------------------------------------------------------------

By: Terry ([email protected])

Intro
e|-------------------------------------------------|
B|-------------------------------------------------|
G|-------------------------------------------------|
D|--------------4-4-4------------------------------|
A|--6-6-6--4-4--2-2-2--4-4--2-2--4-4-4-4--6-6-6-6--|
E|--4-4-4--2-2---------2-2--0-0--2-2-2-2--4-4-4-4--|

Verse
e|--------------------------------|
B|--------------------------------|
G|--------------------------------|
D|--4-4-4----------6-6-6----------|
A|--2-2-2--4--4-4--4-4-4--6--6-6--|
E|---------2--2-2---------4--4-4--|

e|----------------------------------|
B|----------------------------------|
G|----------------------------------|
D|--4-4-----------6-6-6-6--8-8-8-8--|
A|--2-2--4-4-4-4--4-4-4-4--6-6-6-6--|
E|-------2-2-2-2--------------------|

Chorus
e|-------------------------------------------------|
B|-------------------------------------------------|
G|-------------------------------------------------|
D|--------------4-4-4------------------------------|
A|--6-6-6--4-4--2-2-2--4-4--2-2--4-4-4-4--6-6-6-6--|
E|--4-4-4--2-2---------2-2--0-0--2-2-2-2--4-4-4-4--|

Chorus Fill
e|--9p8h9p8h9p8h9p8--|
B|-------------------|
G|-------------------|
D|-------------------|
A|-------------------|
E|-------------------|

Bridge
e|-----------|--9p8h9p8h9p8h9p8h9p8h9p8h9p8h9p8h9p8h9p8h9p8h9p8--|
B|-----------|---------------------------------------------------|
G|-----------|---------------------------------------------------|
D|--x-x-x-x--|---------------------------------------------------|
A|--x-x-x-x--|---------------------------------------------------|
E|--x-x-x-x--|---------------------------------------------------|

e|-------------------------------------------------|
B|-------------------------------------------------|
G|-------------------------------------------------|
D|--------------4-4-4------------------------------|
A|--6-6-6--4-4--2-2-2--4-4--2-2--4-4-4-4--6-6-6-6--|
E|--4-4-4--2-2---------2-2--0-0--2-2-2-2--4-4-4-4--|
........................p.m......................

Outro
e|-------------------------------------------------|
B|-------------------------------------------------|
G|-------------------------------------------------|
D|--------------4-4-4------------------------------|
A|--6-6-6--4-4--2-2-2--4-4--2-2--4-4-4-4--6-6-6-6--|
E|--4-4-4--2-2---------2-2--0-0--2-2-2-2--4-4-4-4--|

=================================================================================




Ваше мнение



Капча