-------------------------------------------------------------------------
QUALITY OR QUANTITY - Bad Religion
-------------------------------------------------------------------------
By:Ryan McCallum, [email protected]
*** Song Structure ***
Intro Chorus
Riff A (x3) Riff A (x3)
Riff B Riff B
Riff C Riff C
Riff D Riff D
Verse 1 Verse 2
Riff C Same As Verse 1
Riff D
Riff C Chours/Solo/Outro
Riff D Riff G (x5)
Riff E (x3)
Riff F
*** Riffs ***
Riff A End Riff A Riff B End Riff B
|---------------------------------| |-----------------|
|---------------------------------| |-----------------|
|-7---7-7---7-7-------------------| |---------10------|
|-7---7-7---7-7---8---8-8---8-8---| |-10------10------|
|-5---5-5---5-5---8---8-8---8-8---| |-10------8-------|
|-----------------6---6-6---6-6---| |-8---------------|
Riff C End Riff C
|---------------------------------|---------------------------------|
|---------------------------------|---------------------------------|
|-7---7---7---7---7---7---7---7---|-----------------5-------5---5---|
|-7---7---7---7---7---7---7---7---|-3---3---3-------5-------5---5---|
|-5---5---5---5---5---5---5---5---|-3---3---3-------3-------3---3---|
|---------------------------------|-1---1---1-----------------------|
Riff D End Riff D
|---------------------------------|---------------------------------|
|---------------------------------|---------------------------------|
|-7---7---7---7---7---7---7---7---|-3---------------5---------------|
|-7---7---7---7---7---7---7---7---|-3-------3-------5-------5-------|
|-5---5---5---5---5---5---5---5---|-1-------3-------3-------5-------|
|---------------------------------|---------1---------------3-------|
Riff E End Riff E
|---------------------------------|---------------------------------|
|---------------------------------|---------------------------------|
|-7---7-7---7-7---10--1010--1010--|-5---5-5---5-5---7---7-7---7-7---|
|-7---7-7---7-7---10--1010--1010--|-5---5-5---5-5---7---7-7---7-7---|
|-5---5-5---5-5---8---8-8---8-8---|-3---3-3---3-3---5---5-5---5-5---|
|---------------------------------|---------------------------------|
Riff F End Riff F
|---------------------------------|---------------------------------|
|---------------------------------|---------------------------------|
|-7---7-7---7-7---10--1010--1010--|-3---3-3---3-3---5---5-5---5-5---|
|-7---7-7---7-7---10--1010--1010--|-3---3-3---3-3---5---5-5---5-5---|
|-5---5-5---5-5---8---8-8---8-8---|-1---1-1---1-1---3---3-3---3-3---|
|---------------------------------|---------------------------------|
Riff G
|---------------------------------|---------------------------------|
|---------------------------------|---------------------------------|
|-7---7-7---7-7-------------------|-7---7-7---7-7-------------------|
|-7---7-7---7-7-------8---8---8---|-7---7-7---7-7-------8---8---8---|
|-5---5-5---5-5-------8---8---8---|-5---5-5---5-5-------8---8---8---|
|---------------------6---6---6---|---------------------6---6---6---|
End Riff G
|---------------------------------|---------------------------------|
|---------------------------------|---------------------------------|
|-7---7-7---7-7-------------------|---------10----------7---7---7---|
|-7---7-7---7-7-------8---8---8---|-10------10----------7---7---7---|
|-5---5-5---5-5-------8---8---8---|-10------8-----------5---5---5---|
|---------------------6---6---6---|-8-------------------------------|
-------------------------------------------------------------------------




Ваше мнение



Капча