-------------------------------------------------------------------------------
PUNK ROCK SONG - Bad Religion
-------------------------------------------------------------------------------

TAB BY: Evil dan

verse: 2x 3rd time
|------------------------------------|-----------------------------------------|
|------------------------------------|-----------------------------------------|
|-6-6-6-6--9-9-9-9-------------------|-6-6-6-6--9-9-9-9-----------10-10-10-10--|
|-6-6-6-6--9-9-9-9--9-9-9-9--6-6-6-6-|-6-6-6-6--9-9-9-9--9-9-9-9--10-10-10-10--|
|-4-4-4-4--7-7-7-7--9-9-9-9--6-6-6-6-|-4-4-4-4--7-7-7-7--9-9-9-9---9--9--9--9--|
|-------------------7-7-7-7--4-4-4-4-|-------------------7-7-7-7---------------|

pre-chorus:
|------------------------------------|
|------------------------------------|
|----------9-9-9-9-----------9-9-----|
|-7-7-7-7--9-9-9-9--9-9-9-9--9-9--9--|
|-7-7-7-7--7-7-7-7--9-9-9-9--7-7--9--|
|-5-5-5-5-----------7-7-7-7-------7--|

chorus:guitar1
|-------16-16-------16-16-------16-------16-------16-16-----16-16-----16-----14/16 16 16-17-17-|
|-14-14-------14-14-------14-14---14---14---14-14------14-14-----14-14--13---------------------|
|----------------------------------------------------------------------------------------------|
|----------------------------------------------------------------------------------------------|
|----------------------------------------------------------------------------------------------|
|----------------------------------------------------------------------------------------------|

|-16-16--16-14-14-14-16-17-16-16--------16-16-----16-16-14-16--|
|----------------------------------14-14-----14-14-------------|
|--------------------------------------------------------------|
|--------------------------------------------------------------|
|--------------------------------------------------------------|
|--------------------------------------------------------------|

solo:
TP-------------|
|------------------------------------------------------------------------------|
|---14-14----14-14----14----14--14-16-17-16-14--13-14--------------------------|
|-------12-13----12-13--12-13-------------------------/13----------13----------|
|--------------------------------------------------------14-16-------14-16-----|
|--------------------------------------------------------------16----------15--|
|------------------------------------------------------------------------------|

|---------------------------------------------------------------------------|
|-------------9-12-12(B)-12-9-----------------------------------------------|
|--------9-11---------------11-9-11(B)--------------------------------------|
|---9-11--------------------------------------------------------------------|
|---------------------------------------------------------------------------|
|---------------------------------------------------------------------------|

any comments or corrections: [email protected]

[email protected]--------------




Ваше мнение



Капча