-------------------------------------------------------------------------------
PITY - Bad Religion
-------------------------------------------------------------------------------

Tabbed by: danc446
Email: [email protected]

Tuning: Standard E

INTRO
Riff 1
C5 G#5 G5
e|-------------------------------------------------------|
B|-------------------------------------------------------|
G|---5-5--5-5--5-5--5-5--5-5--5-5------------------------|
D|---5-5--5-5--5-5--5-5--5-5--5-5--6-6--6-6--5-5--5-5----|
A|---3-3--3-3--3-3--3-3--3-3--3-3--6-6--6-6--5-5--5-5----|
E|---------------------------------4-4--4-4--3-3--3-3----|

INTRO
Riff 2
C5 A#5 F5 G5 G#5 A#5
e|----------------------------------------------------------|
B|----------------------------------------------------------|
G|---5-5-5-5--3-3-3-3-----------------------------3-3-3-3---|
D|---5-5-5-5--3-3-3-3--3-3-3-3--5-5-5-5--6-6-6-6--3-3-3-3---|
A|---3-3-3-3--1-1-1-1--3-3-3-3--5-5-5-5--6-6-6-6--1-1-1-1---|
E|---------------------1-1-1-1--3-3-3-3--4-4-4-4------------|

INTRO
Riff 3
C5 A#5 F5 hi G5 G#5 A#5
e|-------------------------------------------------------------|
B|-------------------------------------------------------------|
G|---5-5-5-5--3-3-3-3-10-10-10-10--------------------3-3-3-3---|
D|---5-5-5-5--3-3-3-3-10-10-10-10--5-5-5-5--6-6-6-6--3-3-3-3---|
A|---3-3-3-3--1-1-1-1--8--8--8--8--5-5-5-5--6-6-6-6--1-1-1-1---|
E|---------------------------------3-3-3-3--4-4-4-4------------|

Play Riff 2 for the verses
THEN RIFF 1...
THEN...
CHORUS
C5 G#5 C5 G#5 G5 G#5 D#5 A#5 C5
e|----------------------------------------------------------------|
B|----------------------------------------------------------------|
G|--5-5------5-5-5-5--------------------8-8-8-8---------5-5-5-5---|
D|--5-5-6-6--5-5-5-5-6-6--5-5---6-6-6-6-8-8-8-8-8-8-8-8-5-5-5-5---|
A|--3-3-6-6--3-3-3-3-6-6--5-5---6-6-6-6-6-6-6-6-8-8-8-8-3-3-3-3---|
E|------4-4----------4-4--3-3---4-4-4-4---------6-6-6-6-----------|

POST CHORUS
G#5 D#5 A#5 C5
e|--------------------------------------------|
B|--------------------------------------------|
G|------------8-8-8-8---------------5-5-5-5---|
D|---6-6-6-6--8-8-8-8--8-8-8-8-8-8--5-5-5-5---|
A|---6-6-6-6--6-6-6-6--8-8-8-8-8-8--3-3-3-3---|
E|---4-4-4-4-----------6-6-6-6-6-6------------|

| / slide up
| slide down
| h hammer-on
| p pull-off
| ~ vibrato
| + harmonic
| x Mute note

===============================================================================




Ваше мнение



Капча