-------------------------------------------------------------------------------
PART IV (THE INDEX FOSSIL) - Bad Religion
-------------------------------------------------------------------------------

By: Terry ([email protected])

Intro
e|--------------------------|
B|--------------------------|
G|--------------------------|
D|-7-7777-7-x-5-----x-5-----|
A|-5-5555-5-x-3-x-5-x-3-x-7-|
E|--------------x-3-----x-5-|

Verse
e|-----------------------------------|
B|-----------------------------------|
G|-----------------------------------|
D|-7-7-7-7-x-5-x-7---7-7-7-7-x-5-----|
A|-5-5-5-5-x-3-x-5---5-5-5-5-x-3-x-5-|
E|-------------------------------x-3-|

Chorus
e|------------------------------------------------------------|
B|------------------------------------------------------------|
G|------------------------------------------------------------|
D|-------------------7-7-7-7--------------------7-7-7-7--10-9-|
A|-3-3-3-3--5-5-5-5--5-5-5-5--3-3-3-3--5-5-5-5--5-5-5-5---8-7-|
E|-1-1-1-1--3-3-3-3-----------1-1-1-1--3-3-3-3----------------|

Bridge
e|------------------------------------------------------|
B|------------------------------------------------------|
G|------------------------------------------------------|
D|--7------------5-5-5-7-7-7-7------------5-5-5---------|
A|--5--7-7-7-7-7-3-3-3-5-5-5-5--7-7-7-7-7-3-3-3-5-5-5-5-|
E|-----5-5-5-5-5----------------5-5-5-5-5-------3-3-3-3-|
..p.m..

Outro
e|--------------------------|---|
B|--------------------------|---|
G|--------------------------|-7-|
D|-7-7777-7-x-5-----x-5-----|-7-|
A|-5-5555-5-x-3-x-5-x-3-x-7-|-5-|
E|--------------x-3-----x-5-|-5-|

===============================================================================




Ваше мнение



Капча