Band: Bad Religion
Music: Part III
Album: Tested
Author: Thiago de Sousa e Silva ([email protected])

G ---------------------------------
D --------------------------5------
A -------333333-----------57-57----
E 55555----------333333--5------555

Verse:
G -----------------------------
D ------------3----------------
A -------33333-----------------
E 5555----------33333----555555




Ваше мнение



Капча