-------------------------------------------------------------------------------
PARALLEL - Bad Religion
-------------------------------------------------------------------------------

by DJOLE [email protected]

Intro
E|-------3-------------3-----------3-----------3-----------
B|--4-------4-----4------4-----4-----4-----4------4--------
C|----5-------------5------------5-----------5-------------
D|------------------------------------------------------5--
A|------------------------------------------------------5--
E|------------------------------------------------------3--

E|---------------------------------------------------------
B|---------------------------------------------------------
C|---------------------------------------------------------
D|--5-3--5-5--5-3--6-6-6-6--10-10-10-10-------------------- |x4
A|--3-1--3-3--3-1--6-6-6-6--8--8--8--8---------------------/
E|-----------------4-4-4-4---------------------------------

Verse
E|--------------------------------------------------------------
B|--------------------------------------------------------------
C|--------------------------------------------------------------
D|--5-5-5-5--6-6-6-6--10-10-10-10----5-5-5-5--6-6-6-6--8-8-8-8-- |x2
A|--3-3-3-3--6-6-6-6--8--8--8--8-----3-3-3-3--6-6-6-6--8-8-8-8--/
E|-----------4-4-4-4--------------------------4-4-4-4--6-6-6-6--

E|-------------------------------------------
B|-------------------------------------------
C|-------------------------------------------
D|--5-5-5-5--8-8-8-8--10-10-10-10------------
A|--3-3-3-3--6-6-6-6--8--8--8--8-------------
E|-------------------------------------------

Chorus
E|--------------------------------------
B|--------------------------------------
C|--------------------------------------
D|--5-5-5-5-5-5--8-8-8-8--10-10-10-10--- |x4
A|--3-3-3-3-3-3--8-8-8-8--8--8--8--8----/
E|---------------6-6-6-6----------------

E|--------------------------------------
B|--------------------------------------
C|--------------------------------------
D|--5-x-x--5-5-x-x--6-x--5-x-x---------- |x4
A|--3-x-x--5-5-x-x--6-x--5-x-x----------/
E|---------3-3-x-x--4-x--3-x-x----------

Verse ->

Chorus ->

E|---------------------------------------------------------------------
B|---------------------------------------------------------------------
C|---------------------------------------------------------------------
D|--6-6-6-6--8-8-8-8--9-9-9-9-9-9----6-6-6-6--8-8-8-8--9-9-9-9--4-4-4--
A|--6-6-6-6--8-8-8-8--9-9-9-9-9-9----6-6-6-6--8-8-8-8--9-9-9-9--4-4-4--
E|--4-4-4-4--6-6-6-6--7-7-7-7-7-7----4-4-4-4--6-6-6-6--7-7-7-7--2-2-2--
|< x3 >|

E|------------------------------------------------
B|------------------------------------------------
C|------------------------------------------------
D|--6-6-6-6--6-6-6-6--8-8-8-8--8-8-8-8------------
A|--4-4-4-4--6-6-6-6--6-6-6-6--8-8-8-8------------
E|-----------4-4-4-4-----------6-6-6-6------------

Verse ->

Chorus ->

E|-------------------------------------------
B|-------------------------------------------
C|-------------------------------------------
D|--5-5-5-5--5-5-5-5--6-6-6-6--5-5-5-5------- |x4
A|--3-3-3-3--5-5-5-5--6-6-6-6--5-5-5-5-------/
E|-----------3-3-3-3--4-4-4-4--3-3-3-3-------

E|--------------||
B|--------------||
C|--------------||
D|--5-----------||
A|--3-----------||
E|--------------||

-------------------------------------------------------------------------------




Ваше мнение



Капча