-------------------------------------------------------------------------------
OUT OF HAND - Bad Religion
-------------------------------------------------------------------------------

from: [email protected]

chords:
E5 G5* G5 B5 C5 D5 E5^
|-----------------------|
|-----------------------|
|-----------4--5--7--9--|
|--2--5--5--4--5--7--9--|
|--2--5--5--2--3--5--7--|
|--0--2--3--------------|

don't wanna have to
E5^ C5 D5
take you shit anymore
G5 G5*
i've finally concluded that
E5^ C5 D5
nothing is way to short
G5 G5*
ohh
E5
the ticking of the hour glass
G5 D5
the tiny grains of sand
E5
they beckon me like gravity
G5 D5
like signposts on the land
E5
and all you got you wanted
G5 D5 C5 D5
without force or reprimand
C5
the seconds are all running out
B5 E5 C5 E5 D5
this burdens out of haaaaaaaannd

E5 C5 E5 D5
E5
lets go

-------------------------------------------------------------------------------


Ваше мнение



Капча