-------------------------------------------------------------------------
OPERATION RESCUE - Bad Religion
-------------------------------------------------------------------------

By:Ryan McCallum, [email protected]

*** Song Structure ***
Intro Verse 2
Riff A (x3) Same As Verse 1
Riff B
Pre-Chorus
Verse 1 Same As Before
Riff A (x7)
Riff B Chorus
Same As Before
Pre-Chorus
Riff C Solo
Riff D Riff F (x3)
Riff E
Outro
Chorus Riff H (x2)
Riff F Riff I
Riff G Riff J
Riff F Riff K
Riff G Riff L
Riff A Riff A (x3)
Riff B (x3) Riff M

*** Riffs ***
Riff A End Riff A Riff B End Riff B
|---------------------------------| |----------------------------------|
|---------------------------------| |----------------------------------|
|-7---7-7-7---10--9-------5-------| |-7---7-7-7---5---7----------------|
|-7---7-7-7---10--9-------5-------| |-7---7-7-7---5---7----------------|
|-5---5-5-5---8---7-------3-------| |-5---5-5-5---3---5----------------|
|---------------------------------| |----------------------------------|

Riff C End Riff C
|---------------------------------|----------------------------------|
|---------------------------------|----------------------------------|
|-7---------------10--------------|-7-----------------10-------------|
|-7---------------10------10------|-7-----------------10------10-----|
|-5---------------8-------10------|-5-----------------8-------10-----|
|-------------------------8-------|---------------------------8------|

Riff D End Riff D
|---------------------------------|
|---------------------------------|
|-7---------------10------10------|
|-7---------------10------10------|
|-5---------------8-------8-------|
|---------------------------------|

Riff E End Riff E
|---------------------------------|---------------------------------|
|---------------------------------|---------------------------------|
|-12--12--12--12--12--12--12--12--|---------------------------------|
|-12--12--12--12--12--12--12--12--|-8---8---8---8---10--10--10--10--|
|-10--10--10--10--10--10--10--10--|-8---8---8---8---10--10--10--10--|
|---------------------------------|-6---6---6---6---8---8---8---8---|

Riff F End Riff F
|---------------------------------|---------------------------------|
|---------------------------------|---------------------------------|
|-7---7-7---7-7-------------------|-7---7-7---7-7---10--------------|
|-7---7-7---7-7---8---8-8---8-8---|-7---7-7---7-7---10------10------|
|-5---5-5---5-5---8---8-8---8-8---|-5---5-5---5-5---8-------10------|
|-----------------6---6-6---6-6---|-------------------------8-------|

Riff G End Riff G
|---------------------------------|---------------------------------|
|---------------------------------|---------------------------------|
|---------------------------------|-----------------10--------------|
|-8---8-8---8-8---10--1010--1010--|-8---8-8---8-8---10------10------|
|-8---8-8---8-8---10--1010--1010--|-8---8-8---8-8---8-------10------|
|-6---6-6---6-6---6---8-8---8-8---| 6---6-6---6-6-----------8-------|

Riff H End Riff H
|---------------------------------|---------------------------------|
|---------------------------------|---------------------------------|
|-7---------------10------10------|-7-------------------------------|
|-7---------------10------10------|-7---------------8-------10------|
|-5---------------8-------8-------|-5---------------8-------10------|
|---------------------------------|-----------------6-------8-------|

Riff I End Riff I
|---------------------------------|---------------------------------|
|---------------------------------|---------------------------------|
|---------------------------------|---------------------------------|
|(10)-----------------------------|(10)-----------------------------|
|(10)-----------------------------|(10)-----------------------------|
|(8)------------------------------|(8)------------------------------|

Riff J End Riff J Riff K End Riff K
|---------------------------------| |------------------------------|
|---------------------------------| |------------------------------|
|---------------------------------| |-----------------10-----------|
|-8---------------10--------------| |-8---------------10-----------|
|-8---------------10--------------| |-8---------------8------------|
|-6---------------8---------------| |-6----------------------------|

Riff L End Riff L Riff M End Riff M
|---------------------------------| |-----------------------------||
|-----------------6---------------| |-----------------------------||
|-----------------7---------------| |-7--------------------------||
|-10--------------7---------------| |-7--------------------------||
|-10--------------5---------------| |-5--------------------------||
|-8-------------------------------| |-----------------------------||

=====================================================================




Ваше мнение



Капча