Artist: Bad Religion
Song:Only Entertainment
Tuning EADG

Guitar Intro for Bass (2x)
G-5-5--5-5-1-13-3-5-5--5-5-1-13-3--------------
D-7-7--7-7-3-35-5-7-7--7-7-3-35-5-0-5555555555-
A------------------------------------------------
E------------------------------------------------

Verse (same as intro but played more)
G--------------------------------------
D--------------------------------------
A-5-5--5-5-1-13-3--5-5--5-5-1-1-0-3-3-
E--------------------------------------

Verse 2
G-----------------------------
D-----------------------------
A-5-5-5-5-5-5-1-1-1-13-3-3-3-
E-----------------------------

Thats all I have 4 now, I will tab the chorus soon. On till then 2 bad.




Ваше мнение



Капча