Band:Bad Religion
Album:No control
Song:No control
Artist:Jay Bently
Tabbed by:Paul Nieto a.k.a Hurleyboy
Intro (Play 4 times)
G-------------------------
D-------------------------
A--------5-5-----7--7-7-7-
E--7-7-------5-5----------
Verse
G------------------------
D------------------------
A--------5-5-----7--7-7-7
E--7-7-------5-5---------
Chorus
G--------------------------------------
D--------------------------------------
A-----------------------------------7--
E--3----5----3----5----3----5----------
G--------------------------------------
D--------------------------------------
A--------------------------------------
E--7----5----3----5----7----5----3----5
Outro
G-----------------------------------------------------------
D-----------------------------------------------------------
A-----------------------------------------------------7----5
E--7----5----3----5----7----5----3----5----7-----5----------
G-----------------------------------
D-----------------------------------
A-------7----5-------------7----5---
E--7-------------------7------------
we have no control

G---------------------------------------
D----------------------------------------
A-------------5---------------------5----
E--7----3----------5-------7----3-------5
we have no control, you have no control,
we do not understand you are not in command
G---------------------------------
D---------------------------------
A-----------5----------------5----
E--7----3------5----7----3-------5
you have no control we have no control
G-----------------------------------
D-----------------------------------
A-----------5-----------------5-----
E--7----3-------5----7----3-------5-
no control no control
G--------------------------------------
D--------------------------------------
A--------------------------------------
E--7--7-7--5--7--7-7--5--7--7-7--5--7--
you have no control
That might just be it, probably not, but it suonds good
Just listen to the song for timimg.




Ваше мнение



Капча