Author/Artist: Bad Religion
Title: The Defense
Album: The Process Of Belief
Transcribed by: Lee Newsome
Email: [email protected]

I'm a huge BR fan and just got their new album so I decided to tab my fave song from it,
this is prolly wrong but its just a guide :P only the rhythm as well, no way i doin the Lead lol

Standard Tuning

(intro)
|----------------------------------------------------|
|---------------3------------------------------------|
|----4----0h2---------5--4---------------------------|
|----------------------------------------------------|
|----------------------------------------------------|
|----------------------------------------------------|

(verse/bridge)
|-----------------------------------------------------|
|-----------------------------------------------------|
|-----------------------------------------------------|
|----9--10---9--10---9--10---9--10--12--10------------|
|----9--10---9--10---9--10---9--10--12--10------------|
|----7---8---7---8---7---8---7---8--10---8------------|




Ваше мнение



Капча