Date: Mon, 27 Nov 1995 12:06:21 -0500 (EST)
From: "Geoffrey S. Smith"
Subject: Bad Religion
ARTIST: Bad Religion
SONG: Modern Man
ALBUM: Against the Grain
TAB BY: Geoff Smith
Intro:
F Dflat Gsharp Eflat F
E----------------------16-15-13-16-15-13-16-16-15-15-13-15-16-15-13---------
B------------13--13-14----------------------------------------------16-14-13
G--13--13-13----------------------------------------------------------------
D---------------------------------------------------------------------------
A---------------------------------------------------------------------------
E---------------------------------------------------------------------------
Dflat Gflat Dflat Eflat f
E---------------------------------------------------------------------------
B-------------------15-13--------------13--------------13----------------------
G--15---13-13-13-15-------15-13-15-13-----15-13-15-13-----15-13-12-13----------
D---------------------------------------------------------------------------
A---------------------------------------------------------------------------
E----------------------------------------------------------------------------
Verse I:
F Dflat
I've got nothing to say,
I've got nothing to do,
F Gsharp
All of my neurons are functioning smoothly
Dflat Eflat F
Yet still I'm a cyborg just like you.
F Dflat
I'm one big myoma that thinks,
My planet supports only me,
F Gsharp
I've got this one big problem will I live forever?
Dflat Eflat f
I've got just a short time to see.
Chorus:
F Gsharp Eflat F-Eflat-F
Modern man - evolutionary betrayer,
Modern man - ecosystem destroyer,
Modern man - destroy yourself in shame,
F Gsharp Dflat Eflat




Ваше мнение



Капча