--------------------------------------------------------------------------------------
MODERN MAN - Bad Religion
--------------------------------------------------------------------------------------

By: Terry ([email protected])

Intro
e|-------------------------16p15p13--16p15p13--16p15p13--15h16p15--|
B|--------------13-13--14------------------------------------------|
G|--10--13--10-----------------------------------------------------|
D|-----------------------------------------------------------------|
A|-----------------------------------------------------------------|
E|-----------------------------------------------------------------|

e|--------------------------------------------------------------------------|
B|-------------------15--13---------------13---------------13---------------|
G|--15--13-13-13h15----------15p13h15p13------15p13h15p13------15p13p12h13--|
D|--------------------------------------------------------------------------|
A|--------------------------------------------------------------------------|
E|--------------------------------------------------------------------------|

Verse
e|------------------------------------------------------------------------------|
B|------------------------------------------------------------------------------|
G|------------------------------------------------------------------------------|
D|--10-10-10-10-10-10---------------------10-10-10-10-10-10---------------------|
A|---8--8--8--8--8--8--11-11-11-11-11-11---8--8--8--8--8--8--11-11-11-11-11-11--|
E|----------------------9--9--9--9--9--9----------------------9--9--9--9--9--9--|

e|-----------------------------------------------------------------------------|
B|-----------------------------------------------------------------------------|
G|-----------------------------------------------------------------------------|
D|--10-10-10-10---------------6-6-6-6-6-6--8-8--10-10-10-10-10-10-10-10-10-10--|
A|---8--8--8--8--6-6-6-6-6-6--4-4-4-4-4-4--6-6---8--8--8--8--8--8--8--8--8--8--|
E|---------------4-4-4-4-4-4---------------------------------------------------|

Chorus
e|------------------------------------------------|
B|------------------------------------------------|
G|------------------------------------------------|
D|--------------------8-8-8-8--10-10-10-10-10-10--|
A|--3-3-3-3--6-6-6-6--6-6-6-6---8--8--8--8--8--8--|
E|--1-1-1-1--4-4-4-4------------------------------|

e|------------------------------------------------------|
B|------------------------------------------------------|
G|------------------------------------------------------|
D|--------------------6-6-6-6-6-6-6-6--8-8-8-8-8-8-8-8--|
A|--3-3-3-3--6-6-6-6--4-4-4-4-4-4-4-4--6-6-6-6-6-6-6-6--|
E|--1-1-1-1--4-4-4-4------------------------------------|

Solo
e|-------------------------------------------------------------------|
B|--------------13-13--14--------------------------------------------|
G|--10--13--10-------------13h16--13h16--13h16--13h16--13h16--13h16--|
D|-------------------------------------------------------------------|
A|-------------------------------------------------------------------|
E|-------------------------------------------------------------------|

e|----------------13h16--16p15p13--16p15p13--16p15p13--16p15p13--16p15p13--|
B|---------13h16-----------------------------------------------------------|
G|--13h16------------------------------------------------------------------|
D|-------------------------------------------------------------------------|
A|-------------------------------------------------------------------------|
E|-------------------------------------------------------------------------|

e|--13-13-13--15-15-15--16-16-16--18-18-18--20~-20~-20b-20~~-20--|
B|-----------------------------------------------------------------|
G|-----------------------------------------------------------------|
D|-----------------------------------------------------------------|
A|-----------------------------------------------------------------|
E|-----------------------------------------------------------------|

Outro
e|------------------------------------------------|
B|------------------------------------------------|
G|------------------------------------------------|
D|--------------------8-8-8-8--10-10-10-10-10-10--|
A|--3-3-3-3--6-6-6-6--6-6-6-6---8--8--8--8--8--8--|
E|--1-1-1-1--4-4-4-4------------------------------|

e|------------------------------------------------------|
B|------------------------------------------------------|
G|------------------------------------------------------|
D|--------------------6-6-6-6-6-6-6-6--8-8-8-8-8-8-8-8--|
A|--3-3-3-3--6-6-6-6--4-4-4-4-4-4-4-4--6-6-6-6-6-6-6-6--|
E|--1-1-1-1--4-4-4-4------------------------------------|

e|----------------------------------------------------------------------|
B|----------------------------------------------------------------------|
G|----------------------------------------------------------------------|
D|--6-6-6-6-6-6-6-6--8-8-8-8-8-8-8-8--6-6-6-6-6-6-6-6--8-8-8-8-8-8-8-8--|
A|--4-4-4-4-4-4-4-4--6-6-6-6-6-6-6-6--4-4-4-4-4-4-4-4--6-6-6-6-6-6-6-6--|
E|----------------------------------------------------------------------|

e|------------------------------------------------------------------------------|
B|------------------------------------------------------------------------------|
G|------------------------------------------------------------------------------|
D|--10-10-10-10-10-10---------------------10-10-10-10-10-10---------------------|
A|---8--8--8--8--8--8--11-11-11-11-11-11---8--8--8--8--8--8--11-11-11-11-11-11--|
E|----------------------9--9--9--9--9--9----------------------9--9--9--9--9--9--|

e|----------------------------------------------------------------------------|
B|----------------------------------------------------------------------------|
G|----------------------------------------------------------------------------|
D|--10-10-10-10-10-10-------------------6-6-6-6-6-6-6-6--8-8-8-8-8-8-8-8--10--|
A|---8--8--8--8--8--8--6-6-6-6-6-6-6-6--4-4-4-4-4-4-4-4--6-6-6-6-6-6-6-6---8--|
E|---------------------4-4-4-4-4-4-4-4----------------------------------------|

======================================================================================




Ваше мнение



Капча