-------------------------------------------------------------------------
MODERN DAY CATASTROPHISTS - Bad Religion
-------------------------------------------------------------------------

Rythm 1 (4x)
E----2------0-----2-----0----
B----3------1-----3-----1----
G----2------0-----2-----0----
D--0-0------2-----0-----2----
A--------2--3--2-----2--3----
E----------------------------

Rythm 2 (4x)
D F C

D F C
Take those potatoes outta your ears
D F C
Listen to the warnings, verify all your fears
D F C
There's a world outside that's ready to blow
D F C
And we're all to blame when it finally explodes
D A# C D A# F
You gotta listen up, gotta listen to what they're telling you
D A# C D A# F A# F A# F G
Gotta listen up and think about they're saying to you

(w/ rythm 1)
???? (-- lyrics not printed for this verse)

D A# C D A# F
You gotta listen up, gotta listen to what they're telling you

D A# C D A# F A# F A# F G
Gotta listen up and think about they're saying to you
D F(low) C D
They're the modern day catastrophists
A# F A# C
They've got practical solutions
D F(low) C D
They're the self-appointed righteous pragmatists
A# F(low) C
And they know 50 ways to save the world

(ryhtm 2 w/ lyrics)
what makes you think you can cure our disease?
maybe it's just our biology,
maybe it's time to make room for another species,
this is the 21st century

etc.

-------------------------------------------------------------------------


Ваше мнение



Капча