-------------------------------------------------------------------------------
MEDIOCRE MINDS - Bad Religion
-------------------------------------------------------------------------------

By: Terry ([email protected])

Intro
e|-------------------------------------------------|
B|-------------------------------------------------|
G|-------------------------------------------------|
D|-----------------------------------------8-8-----|
A|--6/8-8-8-8-8-8-8--6/8-8-8-8-8-8-8--6-6--6-6--8--|
E|--4/6-6-6-6-6-6-6--4/6-6-6-6-6-6-6--4-4-------6--|

Verse
e|--------------------------------------------------------|
B|--------------------------------------------------------|
G|--------------------------------------------------------|
D|-----------------------------------------8-8------------|
A|--6/8-8-8-8-8-8-8--6/8-8-8-8-8-8-8--6-6--6-6--8--8-8-8--|
E|--4/6-6-6-6-6-6-6--4/6-6-6-6-6-6-6--4-4-------6--6-6-6--|

Chorus
e|---------------------------------------------------------------------------|
B|---------------------------------------------------------------------------|
G|---------------------------------------------------------------------------|
D|--5-5-5-5--------------------7-7-7-7--------------------5-5-5-5------------|
A|--3-3-3-3--2-2-2-2--3-3-3-3--5-5-5-5--8-8-8-8--5-5-5-5--3-3-3-3--6-6--5-5--|
E|-----------0-0-0-0--1-1-1-1-----------6-6-6-6--3-3-3-3-----------4-4--3-3--|

Bridge
e|-----------------------------------------------|
B|-----------------------------------------------|
G|-----------------------------------------------|
D|--8-8-8-8--5-5-5-5-----------7-7-7-7--5-5-5-5--|
A|--6-6-6-6--3-3-3-3--6-6-6-6--5-5-5-5--3-3-3-3--|
E|--------------------4-4-4-4--------------------|

e|----------------------------|
B|----------------------------|
G|----------------------------|
D|-------10-10----------------|
A|--8-8---8--8--10--10-10-10--|
E|--6-6----------8---8--8--8--|

Solo
e|---------------------------------------------|
B|---------------------------------------------|
G|--/12--10--9--10^9--------9--10b12r10^9------|
D|--------------------8/10-----------------10--|
A|---------------------------------------------|
E|---------------------------------------------|

e|---------------------------13-13-13-13-13-13-13-13--|
B|--13-13-13-13-13-13-13-13---------------------------|
G|----------------------------------------------------|
D|----------------------------------------------------|
A|----------------------------------------------------|
E|----------------------------------------------------|

e|----------------------------------------------------|
B|--15-15-15-15-15-15-15-15---------------------------|
G|---------------------------15-15-15-15-15-15-15-15--|
D|----------------------------------------------------|
A|----------------------------------------------------|
E|----------------------------------------------------|

e|-------------------------13--------|------------|
B|-----------------------------13~~--|------------|
G|------9--10b12r10^9----------------|------------|
D|--10-----------------10------------|------------|
A|-----------------------------------|--6-6--5-5--|
E|-----------------------------------|--4-4--3-3--|

Outro
e|-------------------------------------------------------|
B|-------------------------------------------------------|
G|-------------------------------------------------------|
D|-------8-8-----------------8-8-----------------8-8-----|
A|--6-6--6-6--8--8-8-8--6-6--6-6--8--8-8-8--6-6--6-6--8--|
E|--4-4-------6--6-6-6--4-4-------6--6-6-6--4-4-------6--|

===============================================================================




Ваше мнение



Капча