Bad Religion - Los Angeles is Burning

Intro:

E|-------------(Play-4x)----------------|
B|--------------------------------------|
G|----------------10----------------10--|
D|--101010101010--10--101010101010--10--|
A|--101010101010---8--101010101010---8--|
E|---8-8-8-8-8-8-------8-8-8-8-8-8------|

Other guitar plays this:

E|----------------13-----------------13--|
B|--131313131313--13---131313131313--13--|
G|--121212121212-------121212121212------|
D|---------------------------------------|
A|---------------------------------------|
E|------------(Play-4x)------------------|

Verse:

(Somewhere high in / This is not a test...)
E|--------------------------------------------|
B|--------------------------------------------|
G|--55555555------5555------------------------|
D|--55555555--33--5555--7777--3333--55555555--|
A|--33333333--33--3333--7777--3333--55555555--|
E|------------11--------5555--1111--33333333--|

(But down here / Where Malibu fires...)
E|------------------------------------------|
B|------------------------------------------|
G|--55555555------5555----------------------|
D|--55555555--33--5555--77777777--55555555--|
A|--33333333--33--3333--77777777--55555555--|
E|------------11--------55555555--33333333--|

(And you can't deny / And I cannot believe...)
E|--------------------------------------------|
B|--------------------------------------------|
G|--55555555------5555------------------------|
D|--55555555--33--5555--7777--3333--55555555--|
A|--33333333--33--3333--7777--3333--55555555--|
E|------------11--------5555--1111--33333333--|

(It's showtime / Catch it on...)
E|------------------------------------------|
B|------------------------------------------|
G|--55555555------5555----------------------|
D|--55555555--33--5555--77777777--55555555--|
A|--33333333--33--3333--77777777--55555555--|
E|------------11--------55555555--33333333--|

Then play Intro once

Chorus:

(When the hills...)
E|----------------------------------------------|
B|----------------------------------------------|
G|----------------------------------------------|
D|--77777777--55555555--33333333----------------|
A|--77777777--55555555--33333333--7h8p7--3h5p3--|
E|--55555555--33333333--11111111----------------|

(When the hills / Palm trees are...)
E|--------------------------------------------|
B|--------------------------------------------|
G|--------------------------------5555--4444--|
D|--77777777--55555555--33333333--5555--4444--|
A|--77777777--55555555--33333333--3333--2222--|
E|--55555555--33333333--11111111--------------|

(So many lives...)
E|------------------------------------------|
B|------------------------------------------|
G|------------------------------------------|
D|--77777777--22222222--77777777--33333333--|
A|--77777777--22222222--77777777--33333333--|
E|--55555555--00000000--55555555--11111111--|

(And Los Angeles is burning...)
E|----------------------|
B|----------------------|
G|----------------------|
D|--77777777--55555555--|
A|--77777777--55555555--|
E|--55555555--33333333--|

Then play Intro 2x
Then play Verse
Then play Intro once
Then play Chorus
Then play Intro 2x

Bridge:

(A placard reads...)
E|------------11111111--------------------|
B|------------11111111--------------------|
G|------------11111111--5555555555555555--|
D|--33333333--33333333--5555555555555555--|
A|--33333333--33333333--3333333333333333--|
E|--11111111--11111111--------------------|

(Jacaranda boughs are...)
E|----------------------------------------|
B|----------------------------------------|
G|----------------------------------------|
D|--33333333--55555555--7777777777777777--|
A|--33333333--55555555--7777777777777777--|
E|--11111111--33333333--5555555555555555--|

(More a question...)
E|-----------------------|
B|-----------------------|
G|--------------5--------|
D|--3~----5~----5--5--7--|
A|--3-----5-----3--5--7--|
E|--1-----3--------3--5--|

(The flames are stunning...)
E|--------------------------------------|
B|--------------------------------------|
G|--------------------------------------|
D|--3333333333333333--5555555555555555--|
A|--3333333333333333--5555555555555555--|
E|--1111111111111111--3333333333333333--|

Solo:

E|--------------------------------------------------------------------|
B|--8------8--8-10-8-8/10-10/13-13/15-15b-15-14-11h14p11hp14h11p14----|
G|--9--7-9---------------------------------------------------------12-|
D|--------------------------------------------------------------------|
A|--------------------------------------------------------------------|
E|--------------------------------------------------------------------|

E|--------------------------------------------8b----12b--10b----14b--|
B|-------------------------------------------------------------------|
G|-12h14----14-12----12----------------------------------------------|
D|-------12-------14----14-12~----12h14p12---------------------------|
A|-------------------------------------------------------------------|
E|-------------------------------------------------------------------|

Then play Chorus
Then finish with Intro 2x

That's it. It's actually a really great song.




Ваше мнение



Капча