A nice song off the new album. Standard tuning.

/ = slide up
= slide down
h = hammer-on
p = pull off
* = natural harmonic

Song structure:

Intro riff (twice)
Verse
Chorus
Intro riff (once)
Verse
Chorus
Intro riff (once)
Solo
Bridge (no guitar part)
Intro riff (once)
Chorus
Intro riff (1st bar)

----------------------------------------------------------------------------

Intro riff (bit iffy at the end)

e---------------------------------------------------------|
B---------------------------------------------------------|
G-0000-2-4/54--4-5-7/97--5h7-5-4-4h5p4-0-0h2h4p2-0------|
D---------------------------------------------------------|
A---------------------------------------------------------|
E---------------------------------------------------------|

Verse 2x (palm mute throughout)

e--------------------------------------------|
B--------------------------------------------|
G--------------------------------------------|
D--5-(16x)--3-(16x)--7-(16x)--5-(16x)--------|
A--5--------3--------7--------5--------------|
E--3--------1--------5--------3--------------|

Chorus x4

e--------------------------------------------|
B--------------------------------------------|
G--8-(8x)--5-(8x)----------------------------|
D--8-------5-------5-(16x)-------------------|
A--6-------3-------5-------------------------|
E------------------3-------------------------|

Solo

e------------------------------------------------------------------3--------|
B----------------------------------------------------------------3----------|
G----------------------------------------5--5h7-5-4-4h5-4--0h2-4------------|
D---3/5-3/5-3/5-3/5-3/5--3/5-3/5-3/5-3/5------------------------------------|
A---------------------------------------------------------------------------|
E---------------------------------------------------------------------------|

Bridge (played once or twice)

e----------*12--|
B--*12----------|
G------*12------|
D---------------|
A---------------|
E---------------|

----------------------------------------------------------------------------

And there you go!




Ваше мнение



Капча