-------------------------------------------------------------------------
LEAVE MINE TO ME - Bad Religion
-------------------------------------------------------------------------

By:Ryan McCallum, [email protected]

This song might be tuned down 1/2 a step to Eb, but it's possible to play it
in standard tuning (as I've tabbed here). If you want to play it in tuned to
Eb then shift everything down 1 fret: i.e. C# becomes D

*** Song Structure ***
Intro Bridge
Riff A (x4) Riff F (x4)
Riff B (x3) Riff C (x4)
Riff C
Verse 3
Verse 1 Riff D (x4)
Riff D Riff A (x2)
Riff E
Riff D Outro
Riff E Riff B (x4)
Riff C (x4) Riff G

Verse 2 Notes:
Riff D I'm not 100% sure about the descending lick
Riff E in Riff A ... but it's pretty damn close!
Riff D
Riff E A > . < below a chord indicates the chord
Riff A (x2) is played staccatto i.e. cut short.

*** Riffs ***
Riff A End Riff A
|---------------------------------|---------------------------------|
|---------------------------------|---------------------------------|
|-6---6-----------6---6-----------|---------------------------------|
|-6---6-----------6---6-----------|-7---6-----------6---------------|
|-4---4-----------4---4-----------|---------7---6-------7---6-------|
|---------------------------------|-----------------------------6---|
. . . .

Riff B End Riff B
|---------------------------------|
|---------------------------------|
|-6-------2---------------4---4---|
|-6-------2-------2-------4---4---|
|-4-------0-------2-------2---2---|
|-----------------0---------------|

Riff C End Riff C
|---------------------------------|---------------------------------|
|---------------------------------|---------------------------------|
|-2---2-2---2-2---2---2-2---2-2---|---------------------------------|
|-2---2-2---2-2---2---2-2---2-2---|-6---6-6---6-6---6---6-6---6-6---|
|-0---0-0---0-0---0---0-0---0-0---|-6---6-6---6-6---6---6-6---6-6---|
|---------------------------------|-4---4-4---4-4---4---4-4---4-4---|

Riff D End Riff D
|---------------------------------|---------------------------------|
|---------------------------------|---------------------------------|
|-6---6-6---6-6---4---4-4---4-4---|-2---2-2---2-2---4---4-4---4-4---|
|-6---6-6---6-6---4---4-4---4-4---|-2---2-2---2-2---4---4-4---4-4---|
|-4---4-4---4-4---2---2-2---2-2---|-0---0-0---0-0---2---2-2---2-2---|
|---------------------------------|---------------------------------|

Riff E End Riff E
|---------------------------------|---------------------------------|
|---------------------------------|---------------------------------|
|-2---2-2---2-2-------------------|---------------------------------|
|-2---2-2---2-2---2---2-2---2-2---|-4---4-4---4-4---6---6-6---6-6---|
|-0---0-0---0-0---2---2-2---2-2---|-4---4-4---4-4---6---6-6---6-6---|
|-----------------0---0-0---0-0---|-2---2-2---2-2---4---4-4---4-4---|

Riff F
|---------------------------------|---------------------------------|
|---------------------------------|---------------------------------|
|-6---6---6---6---6-------4-------|-6---6---6---6---6-------2-------|
|-6---6---6---6---6-------4-------|-6---6---6---6---6-------2-------|
|-4---4---4---4---4-------2-------|-4---4---4---4---4-------0-------|
|---------------------------------|---------------------------------|
. . . .
End Riff F
|---------------------------------|---------------------------------|
|---------------------------------|---------------------------------|
|-6---6---6---6---6-------4-------|-2---------------4-------4-------|
|-6---6---6---6---6-------4-------|-2---------------4-------4-------|
|-4---4---4---4---4-------2-------|-0---------------2-------2-------|
|---------------------------------|---------------------------------|
. .

Riff G End Riff G
|---------------------------------||
|---------------------------------||
|-6----------------------------||
|-6----------------------------||
|-4----------------------------||
|---------------------------------||

-------------------------------------------------------------------------




Ваше мнение



Капча