Latch Key Kids by BAD RELIGION
Tabbed by Danc446, [email protected]

TUNED 1/2 Step Down...:::...:::...:::...:::...:::...:::...

Intro:
C#5 G#5 E5 B5 F#5
e|---------------------------------------------------------------------------|
B|---------------------------------------------------------------------------|
G|--6--6--6--6-----------9-------11--11--------------------------------------|
D|--6--6--6--6---6--6----9----9--11--11--------------------------------------|
A|--4--4--4--4---6--6----7----9---9---9--------------------------------------|
E|---------------4--4---------7----------------------------------------------|

Verse:
E5 B5 C#5
e|---------------------------------------------------------------------------|
B|---------------------------------------------------------------------------|
G|--9------------------6-----------------------------------------------------|
D|--9--------9---------6-----------------------------------------------------|
A|--7--------9---------4-----------------------------------------------------|
E|-----------7---------------------------------------------------------------|

Bridge:
C#5 G#5 E5 B5 F#5
e|---------------------------------------------------------------------------|
B|---------------------------------------------------------------------------|
G|---6-----------9--------11-------------------------------------------------|
D|---6-----6-----9----9---11-------------------------------------------------|
A|---4-----6-----7----9----9-------------------------------------------------|
E|---------4----------7------------------------------------------------------|




Ваше мнение



Капча