Bad Religion
Kyoto Now
In The Process of Belief

Tabbed by [email protected]

Intro 2X

e ----------------|----------------|----------------|----------------|
B ----------------|----------------|----------------|----------------|
G -7-7-7-7--------|--10-10-10-10---|-14-14-14-16-14-|----------------|
D -7-7-7-7--------|--10-10-10-10---|-14-14-14-16-14-|----------------|
A -5-5-5-5--------|--8---8--8--8---|-12-12-12-14-12-|----------------|
E ----------------|----------------|----------------|----------------|
After 2nd time let ring
e ----------------|----------------|----------------|----------------|
B ----------------|----------------|----------------|----------------|
G -12-12-12-12----|---8-8-8-8------|---7-5-7-8-7----|------7---------|
D -12-12-12-12----|---8-8-8-8------|---7-5-7-8-7----|------7---------|
A -10-10-10-10----|---6-6-6-6------|---5-3-5-6-5----|------5---------|
E ----------------|----------------|----------------|----------------|

Verse (it's a matter of ...) (0:22)
e --------------------------------------------------------------------
B --------------------------------------------------------------------
G ------7----10----------7--------------------------------------------
D ------7----10----10----7--------------------------------------------
A ------5----8-----10----5--------------------------------------------
E -----------------8--------------------------------------------------

(If you stand to reason...) (0:41) (This world's going to hell(0:53)
e ------------------------------------|--------------------------------
B ------------------------------------|--------------------------------
G -----10----6--------------8---------|----10----6-----8---------------
D -----10----6------6-------8---------|----10----6-----8---------------
A -----8-----4------6-------6---------|----8-----4-----6---------------
E ------------------4-----------------|--------------------------------

Chorus (0:57) (1:12)
e ------------------------------------|-------------------|------------
B ------------------------------------|-------------------|------------
G ------------6--------------8--------|----10-10-11-10----|-5-5-6-5----
D -----8------6-----6--------8--------|----10-10-11-10----|-5-5-6-5----
A -----8------4-----6--------6--------|----8--8--9--8-----|-3-3-4-3----
E -----6------------4-----------------|-------------------|------------

Verse (you might not think ...) (1:16)
e --------------------------------------------------------------------
B --------------------------------------------------------------------
G ------7----10----------7--------------------------------------------
D ------7----10----10----7--------------------------------------------
A ------5----8-----10----5--------------------------------------------
E -----------------8--------------------------------------------------

(its in the way...) (1:30) (and how much did you ...(1:44)
e ------------------------------------|--------------------------------
B ------------------------------------|--------------------------------
G -----10----6--------------8---------|----10----6-----8---------------
D -----10----6------6-------8---------|----10----6-----8---------------
A -----8-----4------6-------6---------|----8-----4-----6---------------
E ------------------4-----------------|--------------------------------

Chorus (1:46) (...is in full retreat) (2:12)
e ------------------------------------|-------------------------------
B ------------------------------------|-------------------------------
G ------------6--------------8--------|----10-10-11-10---10-11-13-15--
D -----8------6-----6--------8--------|----10-10-11-10---10-11-13-15--
A -----8------4-----6--------6--------|----8--8--9--8----8--9--11-13--
E -----6------------4-----------------|-------------------------------

Chords during solo
e -------------------------------------------|-------------------------
B -------------------------------------------|-------------------------
G -----------------------6--------8----------|------8------------------
D ------8------6---------6--------8----------|------8------------------
A ------8------6---------4--------6----------|------6------------------
E ------6------4-----------------------------|-------------------------

Chorus (2:31) (Kyoto now)
e ------------------------------------|--------------------------------
B ------------------------------------|--------------------------------
G ------------6--------------8--------|----10-10-11-10---6--8----------
D -----8------6-----6--------8--------|----10-10-11-10---6--8--8-------
A -----8------4-----6--------6--------|----8--8--9--8----4--6--8-------
E -----6------------4-----------------|------------------------6-------




Ваше мнение



Капча