"Kerosene" by Bad Religion off of the album "Recipe For Hate"
(transcribed by David Back, email: [email protected])
The chords for this song are really divided into three main parts, with
Some little variations.
..and of course, an overdriven channel.
Verse Chords:
These are played in a very fast strumming pattern, just copy
Off the album as well as you can..
E|--10-10-10-10-10---9--9--9--9--9----7--7--7--7--7---9--9--9--9--9----
B|--10-10-10-10-10---9--9--9--9--9----7--7--7--7--7---9--9--9--9--9----
G|--12-12-12-12-12---11-11-11-11-11---9--9--9--9--9---11-11-11-11-11---
D|--12-12-12-12-12---11-11-11-11-11---9--9--9--9--9---11-11-11-11-11---
A|--10---------------9----------------7---------------9--9--9--9--9----
E|---------------------------------------------------------------------
You play that a few times, then play the same thing with a small variation..
E|--10-10-10-10-10---9--9--9--9--9----8--8--8--8--8----8--8--8--8--8-----
B|--10-10-10-10-10---9--9--9--9--9----8--8--8--8--8----8--8--8--8--8-----
G|--12-12-12-12-12---11-11-11-11-11---10-10-10-10-10---10-10-10-10-10----
D|--12-12-12-12-12---11-11-11-11-11---10-10-10-10-10---10-10-10-10-10----
A|--10---------------9----------------8----------------8-----------------
E|-----------------------------------------------------------------------
Now comes the chorus, with some really cool lyrics, as well. :-)
E|----8----8----8----8-------7---7------5---5------3---3---3---3------
B|----8----8----8----8-------7---7------5---5------3---3---3---3------
G|----8----8----8----8-------7---7------5---5------3---3---3---3------
D|----10---10---10---10------9---9------7---7------5---5---5---5------
A|----10---10---10---10------9---9------7---7------5---5---5---5------
E|----8----8----8----8-------7---7------5---5------3---3---3---3------
"Kerosene... keeps me warm... I'm"
E|----0---0------10---10------8----8----8----8------10---10---10------
B|----0---0------10---10------8----8----8----8------10---10---10------
G|----0---0------10---10------8----8----8----8------10---10---10------
D|----2---2------12---12------10---10---10---10-----12---12---12------
A|----2---2------12---12------10---10---10---10-----12---12---12------
E|----0---0------10---10------8----8----8----8------10---10---10------
"alone to watch it burn... Kerosene..."
Now after doing that stuff a few times, (just follow the album) you
Will come across the "solo" section of the song, with a bridge of sorts
Followed by a guitar solo. You play the intro to the chorus just as
You would if a normal chorus was to come about, but then you play
This riff. These are the chords...
E|----8----8----8----8------7---7------5---5------3---3---3---3------
B|----8----8----8----8------7---7------5---5------3---3---3---3------
G|----8----8----8----8------7---7------5---5------3---3---3---3------
D|----10---10---10---10-----9---9------7---7------5---5---5---5------
A|----10---10---10---10-----9---9------7---7------5---5---5---5------
E|----8----8----8----8------7---7------5---5------3---3---3---3------
E|----0---0-----10---10-----8----8----8----8------10---10---10---10--
B|----0---0-----10---10-----8----8----8----8------10---10---10---10--
G|----0---0-----10---10-----8----8----8----8------10---10---10---10--
D|----2---2-----12---12-----10---10---10---10-----12---12---12---12--
A|----2---2-----12---12-----10---10---10---10-----12---12---12---12--
E|----0---0-----10---10-----8----8----8----8------10---10---10---10--
You just have to piece it together and play the certain parts when they
Come around in the song.




Ваше мнение



Капча