-------------------------------------------------------------------------------
ITS A LONG WAY TO THE PROMISE LAND - Bad Religion
-------------------------------------------------------------------------------

By: JoJo ([email protected])

intro: switch-up: the quick part on either side of the verse
e|--2---2---------------|--------------------------------------------|
B|--5---4---------------|--------------------------------------------|
G|--4---4---------------|--9-----------------------------------------|
D|----------------------|--9--9--------------------------------------|
A|----------------------|--7--9--------------------------------------|
E|----------------------|-----7--------------------------------------|

Verse:
e|---------------------------------------------------------------------------|
B|---------------------------------------------------------------------------|
G|---------------------------------------------------------------------------|
D|--7--9---------------------------------------------------------------------|
A|--7--9---------------------------------------------------------------------|
E|--5--7---------------------------------------------------------------------|

Chorus:
e|---------------------------------------------------------------------------|
B|---------------------------------------------------------------------------|
G|--------7--9---------------------------------------------------------------|
D|--7--9--7--9--9------------------------------------------------------------|
A|--7--9--5--7--9------------------------------------------------------------|
E|--5--7--------7------------------------------------------------------------|

Bridge:
e|-----------------|--2------------------------------------------------------|
B|-----------------|--3------------------------------------------------------|
G|--7--9-----------|--2--2---------------------------------------------------|
D|--7--9--9--------|--0--2--2------------------------------------------------|
A|--5--7--9--------|-----0--2------------------------------------------------|
E|--------7--------|--------0------------------------------------------------|

================================================================================




Ваше мнение



Капча