-------------------------------------------------------------------------
INDIVIDUAL - Bad Religion
-------------------------------------------------------------------------
Transcribed by Bob Tomasi
Intro
E------------------------------------------------------------------------
B------------------------------------------------------------------------
G-7-7-7---------7-7-7----------------------------------------------------
D-7-7-7-7-7-7-7-7-7-7-7-7-8-8-8-8-8-7-7-7--------------------------------
A-5-5-5-7-7-7-5-5-5-7-7-7-8-8-8-8-8-7-7-7--------------------------------
E---------5-5-5--------5-5-5-6-6-6-6-6-5-5-5-----------------------------
D A# F C D A# F C D A# C A
D A# F C D A# F C
Individuals run for cover, for the multitudes of thoughtless clones,
D A# D A#
has reached a critical mass, has reached a critical mass.
D A# F C D A# F C
Individuals hide in fear, under cover sheltered by the wafer,
D A# D A#
thin veil of intelligence, thin veil of intelligence.
A# A D F G A
Individuals, nowhere to be seen.
D A# F C D A# F C
Urbana is oozing like a bloated carcass with maggots,
D A# D A#
cooking in the desert heat, cooking in the desert heat.
D A# F C D A# F C
Oozing with progeny writhing, and desperate for input from
D A# D A#
someone more determined, someone more determined.
A# A D F G A
Congregating in invisible circles, half apart and, half apart.
A# A D F G A
All too aware of the insignificance, pushing on with soul and heart.
Solo chords are: A# A D F G A x3 D A# C
D A# F C D A# F C
Individuals dont pray for forgiveness, when pinned up against the wall,
D A# D A#
under siege of persecution, under siege of persecution.
D A# F C D A# F C
Individuals command exemption, and accept dichotomy,
D A#
D A#
maybe you cant choose anymore, maybe you cant choose anymore.
A# A D F G A
Procreation, without gain or purpose, languid wills and torpid minds.
A# A D F G A
Catapulted ever faster, by the arrow time, you take yours and Ill keep mine.
-------------------------------------------------------------------------




Ваше мнение



Капча