-------------------------------------------------------------------------------
IN THE NIGHT - Bad Religon
-------------------------------------------------------------------------------
Tabbed by: danc446
Email: [email protected]
Tuning: EADGBE
Riff 1 The main riff...
C5 G5 F5 G#5
e|---------------------------------------------------------------------------|
B|---------------------------------------------------------------------------|
G|---5--5-5--5---------------------------------------------------------------|
D|---5--5-5--5----5--5-3--3--6--6--------------------------------------------|
A|---3--3-3--3----5--5-3--3--6--6--------------------------------------------|
E|----------------3--3-1--1--4--4--------------------------------------------|
Riff 2
C5 A#5 G#5 G5
e|------------------------------------------|
B|------------------------------------------|
G|----5--------3----------------------------|
D|----5--------3---------6-------5----------|
A|----3--------1---------6-------5----------|
E|-----------------------4-------3----------|
Riff 3
C5 G#5 C5 G#5
e|---------------------------------------------------------|
B|---------------------------------------------------------|
G|-----5--5--5--5---------------5--5--5--5-----------------|
D|-----5--5--5--5---6--6--6--6--5--5--5--5---6--6--6--6----|
A|-----3--3--3--3---6--6--6--6--3--3--3--3---6--6--6--6----|
E|------------------4--4--4--4---------------4--4--4--4----|
Riff 4
C5 G#5 F5 G5
e|---------------------------------------------------------------------------|
B|---------------------------------------------------------------------------|
G|---5--5-5--5---------------------------------------------------------------|
D|---5--5-5--5----6--6--3--3--5--5-------------------------------------------|
A|---3--3-3--3----6--6--3--3--5--5-------------------------------------------|
E|----------------4--4--1--1--3--3-------------------------------------------|
Riff 5
C G# F C G#
Riff 1 x4
Riff 2 x1
Riff 5 x1
Riff 4 x7
Riff 3 x12
| / slide up
| slide down
| h hammer-on
| p pull-off
| ~ vibrato
| + harmonic
| x Mute note
===============================================================================




Ваше мнение



Капча