-------------------------------------------------------------------------------
I LOVE MY COMPUTER - Bad Religion
-------------------------------------------------------------------------------
([email protected])
Intro :
e|-------------------------------------------|
B|-------------------------------------------|
G|--9-9-9-9---7-7-7-7------------------------| x4
D|--9-9-9-9---7-7-7-7----7-7-7-7---9-9-9-9---|
A|--7-7-7-7---5-5-5-5----7-7-7-7---9-9-9-9---|
E|-----------------------5-5-5-5---7-7-7-7---|
pm ... ... ... ...
verse : I love my computer...
(all pm)
e|------------------------------------------|
B|------------------------------------------|
G|--9-9-9-9------5-5-5-5---7-7-7-7----------|
D|--9-9-9-9------5-5-5-5---7-7-7-7--9-9-9-9-| x4
A|--7-7-7-7------3-3-3-3---5-5-5-5--9-9-9-9-|
E|----------------------------------7-7-7-7-|
And it’s never been quite so easy...
e|----------------------------------------|
B|----------------------------------------|
G|--5-5-5----------------5-5-5------------|
D|--5-5-5-----9-9-9------5-5-5----9-9-9---|
A|--3-3-3-----9-9-9------3-3-3----9-9-9---|
E|------------7-7-7---------------7-7-7---|
pm . . . .
chorus :
e|----------------------------------------------------------|
B|----------------------------------------------------------|
G|--9-9-9--7-7-7--5-5-5-5-5-5-5---------------7-7-7-7-7-7---|
D|--9-9-9--7-7-7--5-5-5-5-5-5-5--5-5-5-5-5-5--7-7-7-7-7-7---|
A|--7-7-7--5-5-5--3-3-3-3-3-3-3--5-5-5-5-5-5--5-5-5-5-5-5---|
E|-------------------------------3-3-3-3-3-3----------------|
e|----------------------------------------------------------|
B|----------------------------------------------------------|
G|--9-9-9--7-7-7--5-5-5-5-5-5----------------------7-7-7----|
D|--9-9-9--7-7-7--5-5-5-5-5-5--5-5-5-5-5-5--7-7-7--7-7-7----|
A|--7-7-7--5-5-5--3-3-3-3-3-3--5-5-5-5-5-5--7-7-7--5-5-5----|
E|-----------------------------3-3-3-3-3-3--5-5-5-----------|
play intro x2
play verse
play chorus
play intro x2
bridge : (I’m not too sure about this part; seems right star.. /per)
e|----------------------------------------------------------|
B|----------------------------------------------------------|
G|-9-9-9-9-9-9--7-7-7-7-7-7--5-5-5-5-5-5--------------------|
D|-9-9-9-9-9-9--7-7-7-7-7-7--5-5-5-5-5-5--9-9-9-9-9-9-9-9---|
A|-7-7-7-7-7-7--5-5-5-5-5-5--3-3-3-3-3-3--9-9-9-9-9-9-9-9---|
E|----------------------------------------7-7-7-7-7-7-7-7---|
solo(This is a bitch to play, not to mention tabbing.., Hell BR cant play it right live :-)
e|----------------------------------------------------------|
B|----------------------------------------------------------|
G|-12h14-15b^ 14-17^-15-14-15^-15-17b-15-17b-15-17b-17^-15--|
D|----------------------------------------------------------|
A|----------------------------------------------------------|
E|----------------------------------------------------------|
e|----------------------------------------------------------|
B|----------------------------------------------------------|
G|-17-15-14-15^-14-16/--15b/14-15b/14-17-15-17b/16-17b/16---|
D|----------------------------------------------------------|
A|----------------------------------------------------------|
E|----------------------------------------------------------|
e|----------------------------------------------------------|
B|----------------------------------------------------------|
G|15-13-15-17^-15-15^-14-13-14^-15--------------------------|
D|----------------------------------------------------------|
A|----------------------------------------------------------|
E|----------------------------------------------------------|
e|----------------------------------------------------------|
B|----------------------------------------------------------|
G|-15--14-13-16-15b~-15r14r12h14-13-15-15-15~-14----14b-13--|
D|-14--------14----------------------------------15---------|
A|----------------------------------------------------------|
E|----------------------------------------------------------|
e|----------------------------------------------------------|
B|----------------------------------------------------------|
G|----15b-----14b14b-15-12h14b:~----------------------------|
D|-15-------------------------------------------------------|
A|----------------------------------------------------------|
E|----------------------------------------------------------|
play chorus x2
play intro until bass-solo starts(how different from the guitar-intro :_))
A-7-7-7-7-5-5-5-5-----------------
E-----------------5-5-5-5-7-7-7-7-
Go Away
I DON’T KNOW THE SOLO, SORRY . LISTEN TO THE SONG FOR THE STRUMMING.
Well I know it, and so do you now.. :-)
-------------------------------------------------------------------------------




Ваше мнение



Капча