-------------------------------------------------------------------------
GOD SONG - Bad Religion
-------------------------------------------------------------------------

By:Ryan McCallum

*** Song Structure ***
Intro Chorus
Riff A (x2) Riff E (x2)
Riff B Riff B
Riff E
Verse 1 Riff F
Riff C Riff G
Riff D
Riff C Solo
Riff D See Verse

Chorus Chorus
Riff E (x2) Riff E (x2)
Riff B Riff B
Riff E Riff E
Riff F Riff F
Riff A
Riff B Outro
Riff A (x2)
Verse 2 Riff H
Same

*** Riffs ***
Riff A End Riff A
|---------------------------------|---------------------------------|
|---------------------------------|---------------------------------|
|-10--1010--1010--6---6-6---6-6---|-10--1010--1010--8-------5-------|
|-10--1010--1010--6---6-6---6-6---|-10--1010--1010--8-------5-------|
|-8---8-8---8-8---4---4-4---4-4---|-8---8-8---8-8---6-------3-------|
|---------------------------------|---------------------------------|

Riff B End Riff B
|---------------------------------|---------------------------------|
|---------------------------------|---------------------------------|
|-10--1010--1010--6---6-6---6-6---|-10--1010--1010------------------|
|-10--1010--1010--6---6-6---6-6---|-10--1010--1010--6-------5-------|
|-8---8-8---8-8---4---4-4---4-4---|-8---8-8---8-8---6-------5-------|
|---------------------------------|-----------------4-------3-------|

Riff C End Riff C
|---------------------------------|---------------------------------|
|---------------------------------|---------------------------------|
|-10--1010--1010--6---6-6---6-6---|-10--1010--1010--10--1010--1010--|
|-10--1010--1010--6---6-6---6-6---|-10--1010--1010--10--1010--1010--|
|-8---8-8---8-8---4---4-4---4-4---|-8---8-8---8-8---8---8-8---8-8---|
|---------------------------------|---------------------------------|

Riff D End Riff D
|---------------------------------|---------------------------------|
|---------------------------------|---------------------------------|
|-8---8-8---8-8---6---6-6---6-6---|-10--1010--1010------------------|
|-8---8-8---8-8---6---6-6---6-6---|-10--1010--1010--6-------5-------|
|-6---6-6---6-6---4---4-4---4-4---|-8---8-8---8-8---6-------5-------|
|---------------------------------|-----------------4-------3-------|

Riff E End Riff E Riff F End Riff F
|---------------------------------| |---------------------------------|
|---------------------------------| |---------------------------------|
|-8---8-8-8---8-8-8---8-8-8---8-8-| |-5---5-5-5---5-5-5---5-5-5---5-5-|
|-8---8-8-8---8-8-8---8-8-8---8-8-| |-5---5-5-5---5-5-5---5-5-5---5-5-|
|-6---6-6-6---6-6-6---6-6-6---6-6-| |-3---3-3-3---3-3-3---3-3-3---3-3-|
|---------------------------------| |---------------------------------|

Riff G End Riff G
|---------------------------------|---------------------------------|
|---------------------------------|---------------------------------|
|-5---5-5-5---5-5-10--------------|---------------------------------|
|-5---5-5-5---5-5-10--------------|---------------------------------|
|-3---3-3-3---3-3-8---------------|---------------------------------|
|---------------------------------|---------------------------------|

Riff H End Riff H
|---------------------------------||
|---------------------------------||
|-10------------------------------||
|-10------------------------------||
|-8-------------------------------||
|---------------------------------||

-------------------------------------------------------------------------




Ваше мнение



Капча