-------------------------------------------------------------------------------
FUCK ARMAGEDDON... THIS IS HELL- Bad Religion
-------------------------------------------------------------------------------
Tabbed by: danc446
Email: [email protected]
Tuning: Standard E
Intro Riff
e|---------------------------------------------------------------------------|
B|--5-6-3--3---3---5-6-3--3---3---5-6-3--3---3---5-6-3--3---3---5:::---------|
G|-----------5--------------5--------------5--------------5------------------|
D|---------------------------------------------------------------------------|
A|---------------------------------------------------------------------------|
E|---------------------------------------------------------------------------|
INTRO:
E5 D5 C#5 D5
e|---------------------------------------------------------------------------|
B|---------------------------------------------------------------------------|
G|---9-9--7-7--6-6--------------/-|--|--------------------------------------|
D|---9-9--7-7--6-6--7-7--------/--|__|--------------------------------------|
A|---7-7--5-5--4-4--7-7--------/------|--------------------------------------|
E|------------------5-5-------/------|--------------------------------------|
Verse: This is tricky. For the first two lines of the verse, play:
E5 D5 C#5 A5 D5 C#5 A5
e|-----------------------------------------------------------------|
B|-----------------------------------------------------------------|
G|---9--9-9-9--9--9-9-9--9--9-9-9--9----7--6----------7--6---------|
D|---9--9-9-9--9--9-9-9--9--9-9-9--9----7--6---7-7----7--6---7-7---|
A|---7--7-7-7--7--7-7-7--7--7-7-7--7----5--4---7-7----5--4---7-7---|
E|---------------------------------------------5-5-----------5-5---|
Last two lines are played like this
E5 D5 C5 B5 A5
e|--------------------------------------------------|
B|--------------------------------------------------|
G|---9-9-9-9--7-7-7-7--5-5-5-5----------------------|
D|---9-9-9-9--7-7-7-7--5-5-5-5--9-9-9-9--7-7-7-7----|
A|---7-7-7-7--5-5-5-5--3-3-3-3--9-9-9-9--7-7-7-7----|
E|------------------------------7-7-7-7--5-5-5-5----|
Chorus:
E5 D5 C5 D5 E5
e|------------------------------------------------------|
B|------------------------------------------------------|
G|---9-9--9-9--7-7--7-7--5-5--5-5--7-7--7-7--9-9--9-9---|
D|---9-9--9-9--7-7--7-7--5-5--5-5--7-7--7-7--9-9--9-9---|
A|---7-7--7-7--5-5--5-5--3-3--3-3--5-5--5-5--7-7--7-7---|
E|------------------------------------------------------|
| / slide up
| slide down
| h hammer-on
| p pull-off
| ~ vibrato
| + harmonic
| x Mute note
===============================================================================


Ваше мнение



Капча