Date: Sat, 8 Jul 1995 16:38:27 -0600 (MDT)
From: "Jeff J. Munt"
Subject: Fuck_armageddon_this_is_hell By Bad Religion
Fuck armawhatever by bad religion off of 80-85 and how could hell be any
Worse
Intro
E----------------------------------------------------------------------------
B----------------------------------------------------------------------------
G-9-10-7-7----7---9-10-7-7----7----------------------------------------------
D----------10--------------10------------------------------------------------
A----------------------------------------------------------------------------
E----------------------------------------------------------------------------
Verse
E----------------------------------------------------------------------------
B----------------------------------------------------------------------------
G--9----7-----6---------------------9---7---5---3----2-----------------------
D--9----7-----6----7----------------9---7---5---3----2-----------------------
A--7----5-----4----7----------------7---5---3---1----0-----------------------
E------------------5---------------------------------------------------------
Thats all I know....you'll have to figure out the rest yourself


Ваше мнение



Капча