-------------------------------------------------------------------------------
FROGGER - Bad Religion
-------------------------------------------------------------------------------

By: wherearemypants

Verse:
e|---------------------------------------------------------------------------|
B|---------------------------------------------------------------------------|
G|---------------------9-9-9-9-9-9-9-9---------------------------------------|
D|-10-9-10-9-10-9-10-9-9-9-9-9-9-9-9-9---------------------------------------|
A|-10-9-10-9-10-9-10-9-7-7-7-7-7-7-7-7---------------------------------------|
D|-10-9-10-9-10-9-10-9-------------------------------------------------------|

Chorus:
e|---------------------------------------------------------------------------|
B|---------------------------------------------------------------------------|
G|-12-12-12-12-7-7-7-7-9-9-9-9-9-9-9-9---------------------------------------|
D|-12-12-12-12-7-7-7-7-9-9-9-9-9-9-9-9---------------------------------------|
A|-10-10-10-10-5-5-5-5-7-7-7-7-7-7-7-7---------------------------------------|
D|---------------------------------------------------------------------------|

=============================================================================




Ваше мнение



Капча