-------------------------------------------------------------------------------
EPIPHANY - Bad Religion
-------------------------------------------------------------------------------
: let ring
x harmonics
h hammer
p pull off
pm____ palm mute
b bend
By: Steve
Intro
(not exact number of strums)
D C Bb A D F Bb A
e|-2--0--1--0--2--1--1--0---|
B|-3--1--3--2--3--1--3--2---|
G|-2--0--3--2--2--2--3--2---|
D|-0--2--3--2--0--3--3--2---|
A|----3-----0-----3-----0---|
E|--------------------------|
post-verse
(not exact number of strums)
e|---------------------------------------------------------------------------|
B|---------------------------------------------------------------------------|
G|---------------------------------------------------------------------------|
D|-7-7-7-7-7--8:-7:----------------------------------------------------------|
A|------------8:-7:----------------------------------------------------------|
E|------------6:-5:----------------------------------------------------------|
pre chorus
repeat(the harmonics are on the 775 powerchord do this part how ever many
times and then on the last time end with this part
e|---------------------------------------------------------------------------|
B|---------------------------------------------------------------------------|
G|------------------------------------------------5--------------------------|
D|-7-xx7-8----------------------------------7-7-8-5--------------------------|
A|-7-xx7-8----------------------------------7-7-8-3--------------------------|
E|-5-xx5-6----------------------------------5-5-6----------------------------|
choru (not exact amount of strums)
e|---------------------------------------------------------------------------|
B|---------------------------------------------------------------------------|
G|--7--------10--5--10--9-7----7--------10-5--10-9-10-9-10-9-9---------------|
D|--7--7--8--10--5--10--9-7----7--7--8--10-5--10-9-10-9-10-9-7---------------|
A|--5--7--8---8--3---8--7-5----5--7--8--8--3---8-7--8-7--8-7-7---------------|
E|-----5--6-----------------------5--6---------------------------------------|
little solo after chorus and outro
e|---------------------------------------------------------------------------|
B|---------------------------------------------------------------------------|
G|-7----------------5--7-----------------------------------------------------|
D|----7-----------7------5--10-----------------------------------------------|
A|-------5--7--8---------------10-8-7h8p7-5----------------------------------|
E|---------------------------------------------------------------------------|
bridge
(no exact strums)
e|---------------------------------------------------------------------------|
B|---------------------------------------------------------------------------|
G|-------------5-------------------------------------------------------------|
D|-7-7-7-7--3--5----5-5-5-5-5-5-5-5------------------------------------------|
A|-7-7-7-7--3--3----5-5-5-5-5-5-5-5------------------------------------------|
E|-5-5-5-5--1-------3-3-3-3-3-3-3-3------------------------------------------|
pm_______________
e|---------------------------------------------------------------------------|
B|---------------------------------------------------------------------------|
G|-----------5---------------------------------------------------------------|
D|-7-7-7-7-3-5---------------------------------------------------------------|
A|-7-7-7-7-3-3---------------------------------------------------------------|
E|-5-5-5-5-1-----------------------------------------------------------------|
solo
e|---------------------------------------------------------------------------------|
B|---------------------------5h6p5---5---------------------------------------------|
G|-------------5-------------------5---5-----------------------------------------5-|
D|-7---5-----5---5----7h8p7--------------5----7h8p7--------------------------------|
A|---5---5-8----------------------------------------8-8-----7h8p7h8(a few times)---|
E|-----------------8------------------------8-----------8-8------------------------|
-------------------------------------------------------------------------------
e|-------------------------------------------------------------------------------------|
B|-9h10p9----9-------------------------------------------------------------------------|
G|--------10---10-9h10p9----9-------9h10p9h10p9------------------9-12b-14b-15b-17b-19b-|
D|-----------------------10---11-10-------------10--9h10p9-9h10p9----------------------|
A|-------------------------------------------------------------------------------------|
E|-------------------------------------------------------------------------------------|
===============================================================================




Ваше мнение



Капча