-------------------------------------------------------------------------------
DON'T SELL ME SHORT - Bad Religion
-------------------------------------------------------------------------------

By: Terry ([email protected])

Best song on The New America album!!

Intro
e|----------------|------|
B|----------------|------|
G|----------------|--12--|
D|-----8----------|------|
A|-5-8-6---5-8-10-|--10--|
E|-3-6-----3-6--8-|------|

Verse
e|--------------------------------------------------------------------|
B|--------------------------------------------------------------------|
G|--------------------------------------------------------------------|
D|---8---10-10-10---8---10-5--8-------8---10-10-10---8---10-5--8------|
A|-5-6-8--8--8--8---6-8--8-3--6-8---5-6-8--8--8--8---6-8--8-3--6-8-10-|
E|-3---6--------------6---------6---3---6--------------6---------6--8-|

Pre-Chorus
e|-----------------------|
B|-----------------------|
G|-----------------------|
D|-12-10---8---12-10---8-|
A|-10--8-8-6---10--8-8-6-|
E|-------6-----------6---|

Chorus
e|-------|-----------------------|--------------|-----------------|
B|-------|-----------------------|--------------|-----------------|
G|-------|-----------------------|--------------|-----------------|
D|--7-7--|----8---10------8--10--|----8---8-10--|------8-------10-|
A|--5-5--|--5-6-8--8---5-6-8--8--|--5-6-8-6--8--|--5-8-6---5-8--8-|
E|-------|--3---6------3---6-----|--3---6-------|--3-6-----3-6----|

Pre-Bridge x2
e|----------------|
B|----------------|
G|----------------|
D|-----8-------10-|
A|-5-8-6---5-8--8-|
E|-3-6-----3-6----|
.p.m. .p.m.

Bridge x4
e|----------------|------|
B|----------------|------|
G|----------------|------|
D|-----8-------10-|-8-10-|
A|-5-8-6---5-8--8-|-6--8-|
E|-3-6-----3-6----|------|
.p.m. .p.m.

Post-Bridge x2
e|----------------|
B|----------------|
G|----------------|
D|-----8-------10-|
A|-5-8-6---5-8--8-|
E|-3-6-----3-6----|

Solo
e|--?--|
B|--?--|
G|--?--|
D|--?--| Take a crack at it...stay within the key!
A|--?--|
E|--?--|

Chorus
e|-------|-----------------------|--------------|-----------------|
B|-------|-----------------------|--------------|-----------------|
G|-------|-----------------------|--------------|-----------------|
D|--7-7--|----8---10------8--10--|----8---8-10--|------8-------10-|
A|--5-5--|--5-6-8--8---5-6-8--8--|--5-6-8-6--8--|--5-8-6---5-8--8-|
E|-------|--3---6------3---6-----|--3---6-------|--3-6-----3-6----|

There is a second guitar, but.....fuck it!

I don't really know what the hell is so damned hard to understand about the word TABLATURE.
It isn't meant to be written out in chord progressions and difficult chord phrasings.
Its about numbers, its meant for the beginners, don't piss them off and make them
think they have to give up and try another song and or give all together. That's
the way it was for me when I started out. Help them out, cause not everyone
learns the right way!!
----------------------------------------------------------------------------------


Ваше мнение



Капча