-------------------------------------------------------------------------------
DO WHAT YOU WANT - Bad Religion
-------------------------------------------------------------------------------

By: Terry ([email protected])

Intro
e|----------------------------------|
B|----------------------------------|
G|----------------------------------|
D|----------------------------------|
A|--10-1010-10-10-10--9-99-9-9-9-99-|
E|---8--8-8--8--8--8--7-77-7-7-7-77-|

e|----------------------------|
B|----------------------------|
G|----------------------------|
D|--9-9--------------------7--|
A|--7-7--x--10--x--5-5--x--5--|
E|-------x---8--x--3-3--x-----|

Verse
e|------------------------------------------|
B|------------------------------------------|
G|------------------------------------------|
D|--9-9-9-9------------------------7-7-7-7--|
A|--7-7-7-7--10-10-10-10--5-5-5-5--5-5-5-5--|
E|------------8--8--8--8--3-3-3-3-----------|

Chorus
e|-------------------------------------------------------------|
B|-------------------------------------------------------------|
G|-------------------------------------------------------------|
D|--5-/-7-7-/-9-9-9-9----5-/-7-/-9-9-9-9----5-/-7-7-/-9-9-9-9--|
A|--3-/-5-5-/-7-7-7-7----3-/-5-/-7-7-7-7----3-/-5-5-/-7-7-7-7--|
E|-------------------------------------------------------------|

e|----------------------------------|
B|----------------------------------|
G|----------------------------------|
D|----------------------------------|
A|--10-1010-10-10-10--9-99-9-9-9-99-|
E|---8--8-8--8--8--8--7-77-7-7-7-77-|

Pre-Verse
e|----------------------------|
B|----------------------------|
G|----------------------------|
D|--9-9--------------------7--|
A|--7-7--x--10--x--5-5--x--5--|
E|-------x---8--x--3-3--x-----|

Bridge
e|----------------------------------------------------|
B|----------------------------------------------------|
G|----------------------------------------------------|
D|--9--7-/-9----9--7-/-9----9--7-/-9----9--7-/-9--|
A|--7--5-/-7----7--5-/-7----7--5-/-7----7--5-/-7--|
E|----------------------------------------------------|

Chorus
e|-------------------------------------------------------------|
B|-------------------------------------------------------------|
G|-------------------------------------------------------------|
D|--5-/-7-7-/-9-9-9-9----5-/-7-/-9-9-9-9----5-/-7-7-/-9-9-9-9--|
A|--3-/-5-5-/-7-7-7-7----3-/-5-/-7-7-7-7----3-/-5-5-/-7-7-7-7--|
E|-------------------------------------------------------------|

e|----------------------------------|
B|----------------------------------|
G|----------------------------------|
D|----------------------------------|
A|--10-1010-10-10-10--9-99-9-9-9-99-|
E|---8--8-8--8--8--8--7-77-7-7-7-77-|

Outro
e|----------------------------|
B|----------------------------|
G|----------------------------|
D|--9-9--------------------7--|
A|--7-7--x--10--x--5-5--x--5--|
E|-------x---8--x--3-3--x-----|

e|---------------------------------------|
B|---------------------------------------|
G|---------------------------------------|
D|--9-9------------------------7-7--9--|
A|--7-7--x--10--x--5-5-5-5--x--5-5--7--|
E|-----------8-----7-7-7-7--x------------|

-------------------------------------------------------------------------------




Ваше мнение



Капча