-------------------------------------------------------------------------------
Damned to Be Free- Bad Religion
-------------------------------------------------------------------------------

Tabbed by: danc446
Email: [email protected]

Tuning: Standard E eadgbe
Ready? Let's Go!

D5 C5 A#5 C5 A5 A#5 G5 G5(hi)
e|----------------------------------------------------|
B|----------------------------------------------------|
G|----7--5------5-------------12----------------------|
D|----7--5--8---5---7--4---5--12----PLAY Four Times---|
A|----5--3--8---3---7--4---5--10------THEN...---------|
E|----------6-------5--6---3--------------------------|

G5 D#5 D5 G5 D#5 C5 A#5 A5
e|---------------------------------------------------------------------------|
B|-------------------------------------------------------------------PLAY----|
G|------------------8-8-8-8--7-7-------------------8-8-5-5-----------SIX-----|
D|----5--5-5-5--5---8-8-8-8--7-7-5-5--5-5--5-5--5--8-8-5-5-8-8-7-7---TIMES---|
A|----5--5-5-5--5---6-6-6-6--5-5-5-5--5-5--5-5--5--6-6-3-3-8-8-7-7-----------|
E|----3--3-3-3--3----------------3-3--3-3--3-3--3----------6-6-5-5----THEN---|

THE PIANO/KEYBOARD PART ARR. FOR GUITAR
G F D A# C
e|--3---------1--------5------6------8---------------------------------------|
B|--3----3----1-1------7------6------8---------------------------------------|
G|--4--4------2---2----7------7---7--9------------_____------___-------------|
D|--5-----5---3--------7--7/8-8-----10--------------|---|--|-|__--|--|------|
A|--5-------5-3-----3--5------8--8--10--------------|---|__|-|----|--|------|
E|--3---------1--------5------6------8--------------|---|--|-|__--|--|------|

G5 D5 D#5 D5
e|---------------------------------------------------------------------------|
B|---------------------------------------------------------------------------|
G|------7-7--7-7--7-7--8-8--8-8--8-8--8-8---7-7--7-7--7-7--7-7---------------|
D|--5-5-7-7--7-7--7-7--8-8--8-8--8-8--8-8---7-7--7-7--7-7--7-7---------------|
A|--5-5-5-5--5-5--5-5--6-6--6-6--6-6--6-6---5-5--5-5--5-5--5-5---------------|
E|--3-3----------------------------------------------------------------------|

play 4X then
outro
D5 C5 A#5 C5 A5 A#5/F G5
e|---------------------------------------------------------------------------|
B|---------------------------------------------------------------------------|
G|--7----5----3----5--------3------------------------------------------------|
D|--7----5----3----5---7----3-----5------------------------------------------|
A|--5----3----1----3---7----1-----5------------------------------------------|
E|---------------------5----1-----3------------------------------------------|

| / slide up
| slide down
| h hammer-on
| p pull-off
| ~ vibrato
| + harmonic
| x Mute note

===============================================================================




Ваше мнение



Капча