-------------------------------------------------------------------------------
CEASE - Bad Religion
-------------------------------------------------------------------------------

By: Johnny Confidence - [email protected]

it's not a hard song to figure out, except the solos.

intro/ main riff
e|----------------------------------|
B|----------------------------------|
G|-10-10-8--6-6-4---10-10-8--6-6-4--|
D|-10-10-8--6-6-4---10-10-8--6-6-4--|
A|--8--8-6--4-4-3----8--8-6--4-4-3--|
E|----------------------------------|

first solo
E---------------------------1-3p1-1-4-1--1-1--1---4-1-1----------------------------|
B---------------------------1-----------1-1-1-1-1-1-1-1-1--------------------------|
G-1-0-------1-0------1-0-0-1-------------------------------3b5r3-1--1-3b5r3p1-3b5--|
D-----1-3-3----1-1h3-----------------------------------------------3---------------|
A----------------------------------------------------------------------------------|
E----------------------------------------------------------------------------------|

verse
e|---------------------------------------------------------------------------|
B|---------------------------------------------------------------------------|
G|-10---8---6-------------------------3-3-3-3--6-6-6-6--8-8-8-8--------------|
D|-10---8---6---6---5-6-5-2--3-3-3-3--3-3-3-3--6-6-6-6--8-8-8-8--------------|
A|--8---6---4---6---5-6-5-2--3-3-3-3--1-1-1-1--4-4-4-4--6-6-6-6--------------|
E|--------------4---3-4-3-0--1-1-1-1-----------------------------------------|

e|----------------------------------------------------------------------------------|
B|----------------------------------------------------------------------------------|
G|--10-10-10-10--8-8-8-8--6-6-6-6-----------10-10-10-10--8-8-8-8--6-6-6-6-----------|
D|--10-10-10-10--8-8-8-8--6-6-6-6--6-6-6-6--10-10-10-10--8-8-8-8--6-6-6-6--6-6-6-6--|
A|---8--8--8--8--6-6-6-6--4-4-4-4--6-6-6-6---8--8--8--8--6-6-6-6--4-4-4-4--6-6-6-6--|
E|---------------------------------4-4-4-4---------------------------------4-4-4-4--|

e|------------------------------------------------------------------------|
B|------------------------------------------------------------------------|
G|-------------------6-6-6-6--8-8-8-8-----------6-6-6-6--8-8-8-8-8-8-8-8--|
D|--8-8-8-8-8-8-8-8--6-6-6-6--8-8-8-8--6-6-6-6--6-6-6-6--8-8-8-8-8-8-8-8--|
A|--8-8-8-8-8-8-8-8--4-4-4-4--6-6-6-6--6-6-6-6--4-4-4-4--6-6-6-6-6-6-6-6--|
E|--6-6-6-6-6-6-6-6--------------------4-4-4-4----------------------------|

e|---------------------------------------------------------------|
B|---------------------------------------------------------------|
G|-10--10---8---8---6----6-6-6-6--7-7-7-7--8-8-8-8---------------|
D|-10--10---8---8---6----6-6-6-6--7-7-7-7--8-8-8-8--10-10-10-10--|
A|--8---8---6---6---4----4-4-4-4--4-4-4-4--6-6-6-6--10-10-10-10--|
E|---------------------------------------------------8--8--8--8--|

second solo
E----------------------------------------------------------------------|
B---------------------------------------16-------------16b18r16--13-13-|
G-----------------13----12-13----15b17---15b17r15-13-------------------|
D-15-15-15-15-------15-------15----------------------------------------|
A--------------15------------------------------------------------------|
E----------------------------------------------------------------------|

verse

riff while 3rd solo
e|----------------------------------------------------------------------------|
B|----------------------------------------------------------------------------|
G|-10-10-10-10-10-10-10-10--8-8-8-8-8-8-8-8--6-6-6-6-6-6-6-6------------------|
D|-10-10-10-10-10-10-10-10--8-8-8-8-8-8-8-8--6-6-6-6-6-6-6-6--6-6-6-6-6-6-6-6-|
A|--8--8--8--8--8--8--8--8--6-6-6-6-6-6-6-6--4-4-4-4-4-4-4-4--6-6-6-6-6-6-6-6-|
E|------------------------------------------------------------4-4-4-4-4-4-4-4-|

e|------------------------------------------------------------------------|
B|------------------------------------------------------------------------|
G|-------------------6-6-6-6--8-8-8-8-----------6-6-6-6--8-8-8-8-8-8-8-8--|
D|--8-8-8-8-8-8-8-8--6-6-6-6--8-8-8-8--6-6-6-6--6-6-6-6--8-8-8-8-8-8-8-8--|
A|--8-8-8-8-8-8-8-8--4-4-4-4--6-6-6-6--6-6-6-6--4-4-4-4--6-6-6-6-6-6-6-6--|
E|--6-6-6-6-6-6-6-6--------------------4-4-4-4----------------------------|

third solo
E-13-13-13-13-13-13-----------13----------------13-------13---------------------------------|
B-13-13-13-13-13-13-15-15h16----15h16----15h16----15h16---16--16-15-16-15-13----------------|
G----------------------------------------------------------------------------15-15b17r15-13-|
D-------------------------------------------------------------------------------------------|
A-------------------------------------------------------------------------------------------|
E-------------------------------------------------------------------------------------------|

E--------------16b18r16--------------------------------------------------------------|
B--16b18r16p13-----------------------------------------------------------------------|
G------------------------13-13-13-----13-13-13----------13--------108-86-65-5/65-|
D----------------------------------15----------15-13h15----15-15---------------------|
A------------------------------------------------------------------86-64-43-3/43-|
E------------------------------------------------------------------------------------|

verse

solo 4
E--------------------------1--------------3-1---4-1-1----------------------------|
B--------------------------1--------------1-1-1---1-1-1----------------------x-x-|
G-1-0-------1-3b5r3p1-3b5---3b5-3b5r3-1----------------6b8r6-5---5-3-3-3b5---x-x-|
D-----1-3-3----------------------------------------------------------------3-x-x-|
A--------------------------------------------------------------------------------|
E--------------------------------------------------------------------------------|

E-------------------------------------------------------------------------------------------------|
B-------------13----16-------16-------16p13-----16p13----16p13----16b18r16-------16---------------|
G-13-13-13---15b17----15b17----15b17-------15---------15--------15----------15b17----15b17-13-----|
D----------15-----------------------------------------------------------------------------------15|
A-------------------------------------------------------------------------------------------------|
E-------------------------------------------------------------------------------------------------|

==================================================================================================




Ваше мнение



Капча