-------------------------------------------------------------------------------
BETTER OFF DEAD - Bad Religion
-------------------------------------------------------------------------------

By: Terry ([email protected])

Intro
e|--------------------------------------------------------|
B|--------------------------------------------------------|
G|--------------------------------------------------------|
D|-------------10-10-10-10-10-------------12-12-12-12-12--|
A|--7-7-7-7-7---8--8--8--8--8--7-7-7-7-7--10-10-10-10-10--|
E|--5-5-5-5-5------------------5-5-5-5-5------------------|

e|------------------------------------------------------|
B|------------------------------------------------------|
G|------------------------------------------------------|
D|-------------10-10-10-10-10---------------------------|
A|--7-7-7-7-7---8--8--8--8--8--10-10-10-10-10-10--9--7--|
E|--5-5-5-5-5-------------------8--8--8--8--8--8--7--5--|

e|----------------------------------------------|
B|----------------------------------------------|
G|----------------------------------------------|
D|-------------10-10-10-10-10--9-9-9-9-9-9-9-9--|
A|--7-7-7-7-7---8--8--8--8--8--7-7-7-7-7-7-7-7--|
E|--5-5-5-5-5-----------------------------------|

Verse
e|--------------------------------------------------------|
B|--------------------------------------------------------|
G|--------------------------------------------------------|
D|-------------10-10-10-10-10-------------12-12-12-12-12--|
A|--7-7-7-7-7---8--8--8--8--8--7-7-7-7-7--10-10-10-10-10--|
E|--5-5-5-5-5------------------5-5-5-5-5------------------|

e|---------------------------------------------------------|
B|---------------------------------------------------------|
G|---------------------------------------------------------|
D|-------------10-10-10-10-10------------------------------|
A|--7-7-7-7-7---8--8--8--8--8--10-10-10-10-10--9-9-9-9-9---|
E|--5-5-5-5-5-------------------8--8--8--8--8--7-7-7-7-7---|

Pre-Chorus
e|-----------------------------------------------------|
B|-----------------------------------------------------|
G|-----------------------------------------------------|
D|--5-5-5-5--7-7-7-7-----------------------------------|
A|--3-3-3-3--5-5-5-5--10-10-10-10--9-9-9-9--7-7-7-7-7--|
E|---------------------8--8--8--8--7-7-7-7--5-5-5-5-5--|

e|------------------------------------------------------------------------------------|
B|------------------------------------------------------------------------------------|
G|------------------------------------------------------------------------------------|
D|--9-9-9-9-9--10-10-10-10-10-10--12-12-12-12-12-12---------------14-14-14-14---------|
A|--7-7-7-7-7---8--8--8--8--8--8--10-10-10-10-10-10--10-10-10-10--12-12-12-12--10--9--|
E|----------------------------------------------------8--8--8--8----------------8--7--|

Chorus
e|------------------------------------------------------------------------|
B|------------------------------------------------------------------------|
G|------------------------------------------------------------------------|
D|---------------10-10-10-10-10-10---------------------12-12-12-12-12-12--|
A|--7-7-7-7-7-7---8--8--8--8--8--8--10-10-10-10-10-10--10-10-10-10-10-10--|
E|--5-5-5-5-5-5----------------------8--8--8--8--8--8---------------------|

e|------------------------------------------------------------------|
B|------------------------------------------------------------------|
G|------------------------------------------------------------------|
D|---------------10-10-10-10-10-10---------------------7-7-7-7-7-7--|
A|--7-7-7-7-7-7---8--8--8--8--8--8--10-10-10-10-10-10--5-5-5-5-5-5--|
E|--5-5-5-5-5-5----------------------8--8--8--8--8--8---------------|

Solo
e|----------------------------------------------------------------------------|
B|----------------------------------------------------------------------------|
G|--12^^--10^--12^-10^^--12-12-12--10----------------------12-------------12--|
D|-------------------------------------12--7/12/10-10--12------1210--12------|
A|----------------------------------------------------------------------------|
E|----------------------------------------------------------------------------|

e|-----------------------------------------------------------------------------|
B|-----------------------------------------------------------------------------|
G|------------12------------12-12-12-12-12-12--10--------12-12--10-------------|
D|-1210--12------1210-12-------------------------10^^-------------12p13~~~~--|
A|-----------------------------------------------------------------------------|
E|-----------------------------------------------------------------------------|

Outro
e|------------------------------|
B|------------------------------|
G|------------------------------|
D|------------------------------|
A|--10~~--10~~--10~~~~--10--|
E|---8~~---8~~---8~~~~---8--|




Ваше мнение



Капча