------------------------------------------------------------------------
BEST FOR YOU - Bad Religion
------------------------------------------------------------------------

Intro:
D / Bb C /
e---------------------
B---------------------
G--------------------- x4
D-7-777777------------
A-5-555555-8----10----
E----------6----8-----

Verse 1 (same figure as above)
D Bb C
Above us lay the burdens

D Bb C
Below us lay the truth

D Bb C
We're somewhere in the middle

D Bb C
And we're all discontent too

Chorus 1:
F / G / D / Bb C / D / Bb C /
F / G / A //

e------------------------------------------------------------------
B------------------------------------------------------------------
G------------------------------------------------------------------
D-10101010-12121212-7777777-------77777777-------10101010-12121212-
A-8-8-8-8--10101010-5555555-8--10-55555555-8--10-8-8-8-8--10101010-
E---------------------------6--8-----------6--8--------------------

e-----------------------
B-----------------------
G-----------------------
D-7777777777777---------
A-7777777777777---------
E-5555555555555---------

F G D Bb C D Bb C
Is someone watching over you?

F G A
Inside they know what's best for you

D / Bb C / D / Bb C /

Verse 2:
D Bb C
Judgement's not tomorrow

D Bb C
It's today yes now it's here

D Bb C
But no it isn't Jesus

D Bb C
Take a look at all your peers

Chorus 2:
F G D Bb C D Bb C
They're all looking down on you

F G A
Inside they know what's best for you

Outro:
D Bb C
Everybody knows what's best for you x4 w/out solo
then repeat till end with ad lib
solo.
e-1010101010101010---10---10---
B-1010101010101010---10---10---
G-----------------12b--12b----- solo is basically based around this
D------------------------------ motif with added ideas from Dm
A------------------------------ pentatonic scale at 10th position.
E------------------------------

------------------------------------------------------------------------




Ваше мнение



Капча