-------------------------------------------------------------------------------
AT THE MERCY OF IMBECILES - Bad Religion
-------------------------------------------------------------------------------

By: Terry ([email protected])

Intro
e|----------------------------|
B|----------------------------|
G|----------------------------|
D|--5/85-5-5-5--5/85-5-5-5--|
A|--3/63-3-3-3--3/63-3-3-3--|
E|----------------------------|

Verse
e|-------------------------------------|
B|-------------------------------------|
G|-------------------------------------|
D|-------------------5-----5-----5-----|
A|--7-7-7-7--5-5--7--3--5--3--5--3--5--|
E|--5-5-5-5--3-3--5-----3-----3-----3--|

Chorus
e|---------------------------------------|
B|---------------------------------------|
G|---------------------------------------|
D|--7-7-7--9-9-9----------------7--9-----|
A|--5-5-5--7-7-7--7-7-7--9-9-9--5--7--9--|
E|----------------5-5-5--7-7-7--------7--|

Outro
e|-----------------------------------|
B|-----------------------------------|
G|-----------------------------------|
D|-----7----------7----------7-------|
A|--5--5--7----5--5--7----5--5--7--|
E|--3-----5----3-----5----3-----5--|

===============================================================================




Ваше мнение



Капча