-------------------------------------------------------------------------------
ALONG THE WAY - Bad Religion
-------------------------------------------------------------------------------
Tabbed by: Justin Le Tourneau (DuffDrinkinHomer)
Email: [email protected]
Solo 1:
0:33 to 0:40
e|---------------------------------------------------------------------------------------------------------|
B|-----7b(9)--7---10--10p7-------------------------------------------------------10p7----------------------|
G|--------------------------------- 9p7-----------------------------------------9----------9p7-------------|
D|----------------------------------------- 9--- 9p7-------------------------9-------------------9~~(Hold)-|
A|------------------------------------------------------9---9p7-------7h9----------------------------------|
E|-----------------------------------------------------------------9---------------------------------------|
Solo 2:
0:55 to 1:09
e|--------------------------------------------------------------------------------------------------------|
B|--7b(9)--10p9p7-------7b(9)--10p9p7--7------------------------------------------------------------------|
G|------------------------------------------------7--9p7----------7--9p7----------------------------------|
D|-------------------------------------------------------------9---------------9--9p7---------------------|
A|---------------------------------------------------------------------------------------9--9p7-----------|
E|-------------------------------------------------------------------------------------------------9--7~~-|
e |-----------------------------------------------------------7----------------------------------|
B|-------------------------------7---10p7----7~~--rh7------10p7----------------------------------|
G|----------------------------9-------------9---------------------------9p7-------9p7------------|
D|-------------------7h9------------------------------------------------------9----------9--9~~--|
A|---------7--7h9--------------------------------------------------------------------------------|
E|---7h9-----------------------------------------------------------------------------------------|
| / slide up
| slide down
| h hammer-on
| p pull-off
| ~ vibrato
| + harmonic
| x Mute note
===============================================================================




Ваше мнение



Капча