By: Terry ([email protected])

Tuning: Standard

Key:
* - Harmonic
~ - Sustain
/ - Slide up
- Slide down
h - Hammer on
p - Pull-off
% - Pause
^ - Bend
~^ - Sustained Bend

Guitar:
Guitar1

Intro
e|--5-5-5-5-5-5-5-5-5-5-5-5-5-5-5-5--|
B|--5-5-5-5-5-5-5-5-5-5-5-5-5-5-5-5--|
G|--6-6-6-6-6-6-6-6-6-6-6-6-6-6-6-6--|
D|--5-5-5-5-5-5-5-5-5-5-5-5-5-5-5-5--|
A|--7-7-7-7-7-7-7-7-7-7-7-7-7-7-7-7--|
E|--5-5-5-5-5-5-5-5-5-5-5-5-5-5-5-5--|

e|--5--7-7-7---------6~~--5--7-7-7--6-6~~--5--7-7-7---------6~~--5--7-7-7--6-6~~--|
B|--7--8-8-8---------6~~--7--8-8-8--6-6~~--7--8-8-8---------6~~--7--8-8-8--6-6~~--|
G|--7--9-9-9---------7~~--7--9-9-9--7-7~~--7--9-9-9---------7~~--7--9-9-9--7-7~~--|
D|--7--9-9-9---------8~~--7--9-9-9--8-8~~--7--9-9-9--*5-*5--8~~--7--9-9-9--8-8~~--|
A|--5--7-7-7---------8~~--5--7-7-7--8-8~~--5--7-7-7---------8~~--5--7-7-7--8-8~~--|
E|------------*6-*6--6~~------------6-6~~-------------------6~~------------6-6~~--|

e|--5--7-7-7---------6~~--5--7-7-7--6-6~~--5--7-7-7---------6~~--5--7-7-7--6-6~~--|
B|--7--8-8-8---------6~~--7--8-8-8--6-6~~--7--8-8-8---------6~~--7--8-8-8--6-6~~--|
G|--7--9-9-9---------7~~--7--9-9-9--7-7~~--7--9-9-9--*5-*5--7~~--7--9-9-9--7-7~~--|
D|--7--9-9-9---------8~~--7--9-9-9--8-8~~--7--9-9-9---------8~~--7--9-9-9--8-8~~--|
A|--5--7-7-7---------8~~--5--7-7-7--8-8~~--5--7-7-7---------8~~--5--7-7-7--8-8~~--|
E|------------*6-*6--6~~------------6-6~~-------------------6~~------------6-6~~--|

Verse1
e|--7~~--6~~--5~~--5~~--5--7-7-7---------6~~--5--7-7-7--6-6~~--5--7-7-7---------6~~--|
B|--8~~--7~~--7~~--5~~--7--8-8-8---------6~~--7--8-8-8--6-6~~--7--8-8-8---------6~~--|
G|--9~~--8~~--7~~--6~~--7--9-9-9---------7~~--7--9-9-9--7-7~~--7--9-9-9---------7~~--|
D|----------------------7--9-9-9---------8~~--7--9-9-9--8-8~~--7--9-9-9--*5-*5--8~~--|
A|----------------------5--7-7-7---------8~~--5--7-7-7--8-8~~--5--7-7-7---------8~~--|
E|--------------------------------*6-*6--6~~------------6-6~~-------------------6~~--|

e|--5--7-7-7--6-6~~--7~~--6~~--5~~--5-5--%--5-5--%--5-5--%--|
B|--7--8-8-8--6-6~~--8~~--7~~--7~~--5-5--%--5-5--%--5-5--%--|
G|--7--9-9-9--7-7~~--9~~--8~~--7~~--6-6--%--6-6--%--6-6--%--|
D|--7--9-9-9--8-8~~-----------------------------------------|
A|--5--7-7-7--8-8~~-----------------------------------------|
E|------------6-6~~-----------------------------------------|

e|--5--7-7-7---------6~~--5--7-7-7--6-6~~--5--7-7-7---------6~~--5--7-7-7--6-6~~--|
B|--7--8-8-8---------6~~--7--8-8-8--6-6~~--7--8-8-8---------6~~--7--8-8-8--6-6~~--|
G|--7--9-9-9---------7~~--7--9-9-9--7-7~~--7--9-9-9--*5-*5--7~~--7--9-9-9--7-7~~--|
D|--7--9-9-9---------8~~--7--9-9-9--8-8~~--7--9-9-9---------8~~--7--9-9-9--8-8~~--|
A|--5--7-7-7---------8~~--5--7-7-7--8-8~~--5--7-7-7---------8~~--5--7-7-7--8-8~~--|
E|------------*6-*6--6~~------------6-6~~-------------------6~~------------6-6~~--|

Chorus
e|----------------------------------------------------------------------|
B|----------------------------------------------------------------------|
G|-----------5-5-5-5--------------------------5-5-5-5-------------------|
D|--7-7-7-7--5-5-5-5--5-5-5-5--------7-7-7-7--5-5-5-5--5-5-5-5-5-5-5-5--|
A|--7-7-7-7--3-3-3-3--5-5-5-5--////--7-7-7-7--3-3-3-3--5-5-5-5-5-5-5-5--|
E|--5-5-5-5-----------3-3-3-3----5-5-5-5-----------3-3-3-3-3-3-3-3--|

e|---------------------------------------------------------------|
B|---------------------------------------------------------------|
G|-----------5-5-5-5-----------2-2-2-2-2-2-2-2-------------------|
D|--2-2-2-2--5-5-5-5--5-5-5-5--2-2-2-2-2-2-2-2-------0h2p0-------|
A|--2-2-2-2--3-3-3-3--5-5-5-5--0-0-0-0-0-0-0-0--2h4---------4p0--|
E|--0-0-0-0-----------3-3-3-3------------------------------------|

e|------------------------------------------------------3-3-3-3-3-3-3-3--1~~--1-1~~--1-1--%--|
B|------------------------------------------------------5-5-5-5-5-5-5-5--1~~--1-1~~--1-1--%--|
G|-----------5-5-5-5-----------7-7-7-7-7-7-7-7-7-7-7-7--3-3-3-3-3-3-3-3--2~~--2-2~~--2-2--%--|
D|--2-2-2-2--5-5-5-5--5-5-5-5--7-7-7-7-7-7-7-7-7-7-7-7--5-5-5-5-5-5-5-5--3~~--3-3~~--3-3--%--|
A|--2-2-2-2--3-3-3-3--5-5-5-5--5-5-5-5-5-5-5-5-5-5-5-5--3-3-3-3-3-3-3-3--3~~--3-3~~--3-3--%--|
E|--0-0-0-0-----------3-3-3-3--------------------------------------------1~~--1-1~~--1-1--%--|

Verse2
e|--7~~--6~~--5~~--5~~--5--7-7-7---------6~~--5--7-7-7--6-6~~--5--7-7-7---------6~~--|
B|--8~~--7~~--7~~--5~~--7--8-8-8---------6~~--7--8-8-8--6-6~~--7--8-8-8---------6~~--|
G|--9~~--8~~--7~~--6~~--7--9-9-9---------7~~--7--9-9-9--7-7~~--7--9-9-9---------7~~--|
D|----------------------7--9-9-9---------8~~--7--9-9-9--8-8~~--7--9-9-9--*5-*5--8~~--|
A|----------------------5--7-7-7---------8~~--5--7-7-7--8-8~~--5--7-7-7---------8~~--|
E|--------------------------------*6-*6--6~~------------6-6~~-------------------6~~--|

e|--5--7-7-7--6-6~~--7~~--6~~--5~~--5-5--%--5-5--%--5-5--%--|
B|--7--8-8-8--6-6~~--8~~--7~~--7~~--5-5--%--5-5--%--5-5--%--|
G|--7--9-9-9--7-7~~--9~~--8~~--7~~--6-6--%--6-6--%--6-6--%--|
D|--7--9-9-9--8-8~~-----------------------------------------|
A|--5--7-7-7--8-8~~-----------------------------------------|
E|------------6-6~~-----------------------------------------|

e|--5--7-7-7---------6~~--5--7-7-7--6-6~~--5--7-7-7---------6~~--5--7-7-7--6-6~~--|
B|--7--8-8-8---------6~~--7--8-8-8--6-6~~--7--8-8-8---------6~~--7--8-8-8--6-6~~--|
G|--7--9-9-9---------7~~--7--9-9-9--7-7~~--7--9-9-9--*5-*5--7~~--7--9-9-9--7-7~~--|
D|--7--9-9-9---------8~~--7--9-9-9--8-8~~--7--9-9-9---------8~~--7--9-9-9--8-8~~--|
A|--5--7-7-7---------8~~--5--7-7-7--8-8~~--5--7-7-7---------8~~--5--7-7-7--8-8~~--|
E|------------*6-*6--6~~------------6-6~~-------------------6~~------------6-6~~--|

e|--5--7-7-7---------6~~--5--7-7-7--6-6~~--5--7-7-7---------6~~--5--7-7-7--6-6~~--|
B|--7--8-8-8---------6~~--7--8-8-8--6-6~~--7--8-8-8---------6~~--7--8-8-8--6-6~~--|
G|--7--9-9-9---------7~~--7--9-9-9--7-7~~--7--9-9-9--*5-*5--7~~--7--9-9-9--7-7~~--|
D|--7--9-9-9---------8~~--7--9-9-9--8-8~~--7--9-9-9---------8~~--7--9-9-9--8-8~~--|
A|--5--7-7-7---------8~~--5--7-7-7--8-8~~--5--7-7-7---------8~~--5--7-7-7--8-8~~--|
E|------------*6-*6--6~~------------6-6~~-------------------6~~------------6-6~~--|

Bridge
e|--7~~--6~~--5~~--5~~--3-3-3-3-3-3--0-0-0--7~~--6~~--5~~--5~~--3-3-3-3-3-3--0-0-0--|
B|--8~~--7~~--7~~--5~~--3-3-3-3-3-3--0-0-0--8~~--7~~--7~~--5~~--3-3-3-3-3-3--0-0-0--|
G|--9~~--8~~--7~~--6~~--4-4-4-4-4-4--0-0-0--9~~--8~~--7~~--6~~--4-4-4-4-4-4--0-0-0--|
D|----------------------------------------------------------------------------------|
A|----------------------------------------------------------------------------------|
E|----------------------------------------------------------------------------------|

e|--7~~~~--6~~~~--5~~~~--5~~~~~~~~--|
B|--8~~~~--7~~~~--7~~~~--5~~~~~~~~--|
G|--9~~~~--8~~~~--7~~~~--6~~~~~~~~--|
D|----------------------------------|
A|----------------------------------|
E|----------------------------------|

Solo
e|-------------------------------------------------------------------------------------------|
B|--------------------------------------14h16^^^^--14~~--14h16^^^^-------------------16^^^^--|
G|---------------------14~~--16-16^^^^---------------------------------------16^^^^----------|
D|--////14~^~^--14h16-----------------------------------------------14h16^^------------------|
A|-------------------------------------------------------------------------------------------|
E|-------------------------------------------------------------------------------------------|

e|--------------------------------------------------------15h17^^--17~~~~~~~~--|
B|--14h16^^-------------14~~--------------------14h15h17-----------------------|
G|-----------14h16^^^^--------14h16^^^^--15h17---------------------------------|
D|-----------------------------------------------------------------------------|
A|-----------------------------------------------------------------------------|
E|-----------------------------------------------------------------------------|

Outro
e|--5--7-7-7---------6~~--5--7-7-7--6-6~~--7---9--9--9----------8~~--7---9--9--9---8~~--|
B|--7--8-8-8---------6~~--7--8-8-8--6-6~~--9--10-10-10----------8~~--7--10-10-10---8~~--|
G|--7--9-9-9---------7~~--7--9-9-9--7-7~~--9--11-11-11--*7-*7---9~~--9--11-11-11---9~~--|
D|--7--9-9-9---------8~~--7--9-9-9--8-8~~--9--11-11-11---------10~~--9--11-11-11--10~~--|
A|--5--7-7-7---------8~~--5--7-7-7--8-8~~--7---9--9--9---------10~~--7---9--9--9--10~~--|
E|------------*6-*6--6~~------------6-6~~-----------------------8~~----------------8~~--|

e|----------------------------------------------------------------------|
B|----------------------------------------------------------------------|
G|-----------7-7-7-7--------------------------7-7-7-7-------------------|
D|--9-9-9-9--7-7-7-7--7-7-7-7--------9-9-9-9--7-7-7-7--7-7-7-7-7-7-7-7--|
A|--9-9-9-9--5-5-5-5--7-7-7-7--////--9-9-9-9--5-5-5-5--7-7-7-7-7-7-7-7--|
E|--7-7-7-7-----------5-5-5-5----7-7-7-7-----------5-5-5-5-5-5-5-5--|

e|----------------------------------------------------------------|
B|----------------------------------------------------------------|
G|-----------7-7-7-7-----------4-4-4-4-4-4-4-4--------------------|
D|--4-4-4-4--7-7-7-7--7-7-7-7--4-4-4-4-4-4-4-4-------2h4p2--1-----|
A|--4-4-4-4--5-5-5-5--7-7-7-7--2-2-2-2-2-2-2-2--4h6------------2--|
E|--2-2-2-2-----------5-5-5-5-------------------------------------|

e|------------------------------------------------------5-5-5-5-5-5-5-5--3~~--3-3~~--3-3--|
B|------------------------------------------------------7-7-7-7-7-7-7-7--3~~--3-3~~--3-3--|
G|-----------7-7-7-7-----------9-9-9-9-9-9-9-9-9-9-9-9--5-5-5-5-5-5-5-5--4~~--4-4~~--4-4--|
D|--4-4-4-4--7-7-7-7--7-7-7-7--9-9-9-9-9-9-9-9-9-9-9-9--7-7-7-7-7-7-7-7--5~~--5-5~~--5-5--|
A|--4-4-4-4--5-5-5-5--7-7-7-7--7-7-7-7-7-7-7-7-7-7-7-7--5-5-5-5-5-5-5-5--5~~--5-5~~--5-5--|
E|--2-2-2-2-----------5-5-5-5--------------------------------------------3~~--3-3~~--3-3--|

=============================================================================================




Ваше мнение



Капча