Tabbed By Danc446, [email protected]
THIS IS A VERY EASY SONG TO MEMORIZE!!!

Intro:
A5
e|---------|
B|---------|
G|---------|
D|----7----|
A|----7----|
E|----5----|

REST OF SONG (Keep repeating)
A5 C5 G5 A5
e|------------------------------------------------------|
B|------------------------------------------------------|
G|---------------5--5-5--5------------------------------|
D|---7--7-7--7---5--5-5--5---5--5-5--5---7--7-7--7------|
A|---7--7-7--7---3--3-3--3---5--5-5--5---7--7-7--7------|
E|---5--5-5--5---------------3--3-3--3---5--5-5--5------|




Ваше мнение



Капча