-------------------------------------------------------------------------------
A WALK - Bad Religion
-------------------------------------------------------------------------------
BY DJOLE [email protected]
Intro
E|--5-5-5-5-5-5--5--5-5-5-5-5----------
B|--6-6-6-6-6-6--6--6-6-6-6-6----------
C|--5-5-5-5-5-5--5--5-5-5-5-5----------
D|--7-7-7-7-7-7--7--7-7-7-7-7----------
A|--5-5-5-5-5-5--5--5-5-5-5-5----------
E|-------------------------------------
Verse
E|----------------------------------------
B|----------------------------------------
C|----------------------------------------
D|--7-7-7-7-7--5-5-5-5--5-5-5-5--8-8-8-8-- |x2
A|--5-5-5-5-5--3-3-3-3--5-5-5-5--8-8-8-8--/
E|----------------------3-3-3-3--6-6-6-6--
Chorus
E|-------------------------------------
B|-------------------------------------
C|-------------------------------------
D|--7-7--5--5-5--5---7-7--5--5-5--5----
A|--5-5--3--3-3--5---5-5--3--3-3--5----
E|---------------3----------------3----
E|---------------------------------------------------------
B|---------------------------------------------------------
C|---------------------------------------------------------
D|--7-7-7-7--8-8-8-8--10-10-10-10--10-10-10-10-9-9-9-9-----
A|--7-7-7-7--8-8-8-8--10-10-10-10--8--8--8--8--7-7-7-7-----
E|--5-5-5-5--6-6-6-6--8--8--8--8---------------------------
Verse
E|----------------------------------------
B|----------------------------------------
C|----------------------------------------
D|--7-7-7-7-7--5-5-5-5--5-5-5-5--8-8-8-8-- |x4
A|--5-5-5-5-5--3-3-3-3--5-5-5-5--8-8-8-8--/
E|----------------------3-3-3-3--6-6-6-6--
Chorus
E|-------------------------------------
B|-------------------------------------
C|-------------------------------------
D|--7-7--5--5-5--5---7-7--5--5-5--5----
A|--5-5--3--3-3--5---5-5--3--3-3--5----
E|---------------3----------------3----
E|---------------------------------------------------------
B|---------------------------------------------------------
C|---------------------------------------------------------
D|--7-7-7-7--8-8-8-8--10-10-10-10--10-10-10-10-9-9-9-9-----
A|--7-7-7-7--8-8-8-8--10-10-10-10--8--8--8--8--7-7-7-7-----
E|--5-5-5-5--6-6-6-6--8--8--8--8---------------------------
E|--5-5-5-5-5-5--5--5-5-5-5-5----------
B|--6-6-6-6-6-6--6--6-6-6-6-6----------
C|--5-5-5-5-5-5--5--5-5-5-5-5----------
D|--7-7-7-7-7-7--7--7-7-7-7-7----------
A|--5-5-5-5-5-5--5--5-5-5-5-5----------
E|-------------------------------------
Solo
E|------------------------------------------------------------------
B|------------------------------------------------------------------
C|--10-10-10--7-----7-----7-5----7-----------------10-10-10-9-10-9--
D|---------------10----7-------7---10-9--9-10-9-8-------------------
A|------------------------------------------------------------------
E|------------------------------------------------------------------
E|--------------------------------------
B|--------------------------------------
C|--10-9-10-9--12-10-9-----------10-10--
D|---------------------12--10-12--------
A|--------------------------------------
E|--------------------------------------
Chorus
E|------------------------------------- ----------
B|------------------------------------- ----------
C|------------------------------------- ----------
D|--7-7--5--5-5--5---7-7--5--5-5--5---- |x2 -7-7-7-7--
A|--5-5--3--3-3--5---5-5--3--3-3--5----/ -7-7-7-7--
E|---------------3----------------3---- -5-5-5-5--
E|----------------------------------------
B|----------------------------------------
C|----------------------------------------
D|--7-7-7-7-7--5-5-5-5--5-5-5-5--8-8-8-8-- |x2
A|--5-5-5-5-5--3-3-3-3--5-5-5-5--8-8-8-8--/
E|----------------------3-3-3-3--6-6-6-6--
Outro
E|--5-5-5-5-5-5--5--5-5-5-5-5----------||
B|--6-6-6-6-6-6--6--6-6-6-6-6----------||
C|--5-5-5-5-5-5--5--5-5-5-5-5----------||
D|--7-7-7-7-7-7--7--7-7-7-7-7---7------||
A|--5-5-5-5-5-5--5--5-5-5-5-5---5------||
E|-------------------------------------||




Ваше мнение



Капча