OK, I've seen what's out there for this song, and I'm not too happy with it. I'm not going to worry about arpeggios here (add 'em if you like) but instead am posting a really nice sounding chord-only version (esp. for those with 12-strings!).

Am C D D'(add9, add5)
E -0- -0- -2- -0-
B -1- -1- -3- -3-
G -2- -0- -2- -0-
D -2- -2- -0- -4-
A -0- -3- -0- -5-
E -x- -x- -x- -x-

The special D (I'll call it D' for short) is easily had by sliding the C up a couple frets. It gives a very melancholy, beautiful sound (you'll hear this on many songs out there, like Man on the Moon by REM). Try this and tell me what you think!
Jason
[email protected]

Verse:
Am C D' C
Walking down this rocky road...
Am G D
Rolling on...
Repeat for all verses

Pre-chorus:
[Am]Oooh, I want you to [D']stay
[Am]Oooh, I want you to[C]daaaa[D]ay

Chorus:
I 'm |Rea dy for love
E--3--3-|-3--0---0----0--x--3--3-|-3--0---0----0--x
B--0--0-|-0--1---1----1--x--0--0-|-0--1---1----1--x
G--0--0-|-0--2---2----2--x--0--0-|-0--2---2----2--x
D--0--0-|-0--2---2----2--x--0--0-|-0--2---2----2--x
A--2--2-|-2--0---0----0--x--2--2-|-2--0---0----0--x
E--3--3-|-3--x---x----x--x--3--3-|-3--x---x----x--x

I 'm |Rea dy for love
E--0--0-|-0--0---0----0--x--0--0-|-0--0---0----0--x
B--1--1-|-1--3---3----3--x--1--1-|-1--3---3----3--x
G--0--0-|-0--0---0----0--x--0--0-|-0--0---0----0--x
D--2--2-|-2--4---4----4--x--2--2-|-2--4---4----4--x
A--3--3-|-3--5---5----5--x--3--3-|-3--5---5----5--x
E--x--x-|-x--x---x----x--x--x--x-|-x--x---x----x--x
(repeat as neccesary)

This part works, so I'll leave it in:
[C] [B] [A] [G] [F] [G]
E-----------------------------------1----------3----
B-----------------------------------1----------3----
G-------0------0------0-------0-----2----------4----
D------0------0------0-------0------3----------5----
A--3**----2**----0**----------------3----------5----
E------------------------3**--------1----------3----




Ваше мнение



Капча