this is my version which I figure out
Intro
(each note is four beats)
g|------------------------------------------|
d|------------------------------------------|
a|-0--------------------0-------------------|
e|------------------------------------------|
Verse
(each note is two beats)
g|--------------------------------------------|
d|--------------0-------------------0----0----|
a|----0----3---------3----0----3--------------|
e|--------------------------------------------|
(Play the verse twice)

Pre-Chorus
(each note is two beats)
g|------------------------------------------|
d|------------0----0-------------------0----|
a|--0----0--------------0----0----3---------|
e|------------------------------------------|
Chorus
g|------------------------------------------------------------------------|
d|--------------0----0--------------0----0--------------------------------|
a|----0----0--------------0----0--------------3--2--0------------0----0---|
e|-----------------------------------------------------3----1-------------|


verse
(each note is two beats)
g|-------------------------------------------|
d|-------------0-------------------0----0----|
a|---0----3---------3----0----3--------------|
e|-------------------------------------------|
(repeat verse)
Pre-Chorus
(each note is two beats)
g|--------------------------------------------|
d|--------------0----0-------------------0----|
a|----0----0--------------0----0----3---------|
e|--------------------------------------------|
Chorus2
g|------------------------------------------------------------------------|
d|--------------0----0--------------0----0--------------------------------|
a|----0----0--------------0----0--------------3--2--0-----5----5----3--2--|
e|-----------------------------------------------------3------------------|
g|------------------------------------------------------------------------|
d|------------------------------------------------------------------------|
a|--0-----5----5----3--2--0------------------0--------------0-------------|
e|-----3---------------------3--1----3------------------------------------|
During piano solo
(each note is two beats)
g|---------------------------------------------|
d|---------------0------------------0----0-----|
a|----0----3----------3----0----3--------------|
e|---------------------------------------------|
repeat
outro
g|--------------------------------------|
d|--------------------------------------|
a|--0--------0--------0--------0--------|
e|--------------------------------------|
the order of the song is like this
-intro
-verse
-verse
-pre-chorus
-chorus
-verse
-verse
-pre-chorus
-chorus2
-solo
-solo
-outro




Ваше мнение



Капча