Date: Mon, 29 Dec 1997 23:23:45 +0000
From: Steve Throne
To: [email protected]
Subject: TAB:Movin On by Bad Company
"Movin On"
By Mick Ralphs
From the album Bad Company
This is one of my favorite songs, so I decided to share it. If you have
Any corrections, please let me know. Have fun!
Intro
E-----------------------------------
B--8-------6-------5--5h6--6---5----
G--7-------5-------5--5----5---5----
D--9-------7-------5--5h7--7---5----
A-----------------------------------
E-----------------------------------
Play twice, with slight variation.
Another idea for those first two chords is below. I haven№t decided
Which way I prefer. They№re pretty similar.
E--3-------1------------------------
B--1-------1-------5--5h6--6---5----
G--3-------2-------5--5----5---5----
D----------3-------5--5h7--7---5----
A-----------------------------------
E-----------------------------------
Ok, on to the verse. I don№t know all the chord names, so I№ll do my
Best to give you the picking pattern. It№s basically G,C
[G]I get up in the morning and it№s just another day
E-------------------------------------------------------
B-12---12-13--x--12---12-13-----x-12-x-13-x-12-x-13-----
G-12---12-12--x--12---12-12-----x-12-x-12-x-12-x-12-----
D-12---12-14--x--12---12-14-----x-12-x-14-x-12-x-14-----
A-------------------------------------------------------
E-------------------------------------------------------
Pack up my belongings, [C]got to get away
E------------------------------------------------
B-12---12-13--x-12-x-13----5---5-6--x-5-x-6------
G-12---12-12--x-12-x-12----5---5-5--x-5-x-5------
D-12---12-14--x-12-x-14----5---5-7--x-5-x-7------
A------------------------------------------------
E------------------------------------------------
Play this again until you reach the C chord, then use this ending to
Bring you into the chorus
Gotta show tonight well I№m Movin On
E--------------------------------------------------------
B----5-----7-----8------9----------10-------11--11--10---
G----5-----7-----8------9----------10--10---10--10--10---
D----5-----7-----8------9----------10--10---12--12--10---
A--------------------------------------------------------
E--------------------------------------------------------
Moving on from town to town
E--------------------------------------------------------
B--7----8----10--x-11-----5--5-6--x-6-x-6--5------6-5----
G--7--7-7----10--x-10-----5--5-5--x-5-x-5--5---5--5-5----




Ваше мнение



Капча