Feel Like Makin' Love - Bad Company

intro
G|-7-9-10-11---|
D|-------------|
A|-------------|
E|-------------|

verse (there are variations of this)
G|--------------------------------7-|
D|0-0--02/30--0------5---------5/7---|
A|-------------32-------02h3/5-------|
E|---------------3-3-----------------|

chorus (x3) chorus outro
G|--------------------------|--------------------------------------|
D|-----------------------5--|-------------------------------/3-----|
A|3h5-5--3h5-5--3h5-5--3----|3h5-5--3h5-5--3h5-5--3--/5--2------5--|
E|--------------------------|--------------------------------------|

To play the repeating chorus at the end, drop the last note off the chorus' outro.

tabbed by Achilles ([email protected])




Ваше мнение



Капча