From: [email protected] (Kevin Bills)
Can't Get Enough
By Bad Company
Written by Mich Ralphs
Transcribed by Kevin Bills
([email protected])

Intro:
E-|---------------------------------------------------------------------------|
B-|---------------------------------------------------------------------------|
G-|-5----3-3-----3---------5-----3-3------3-----------------------------------|
D-|-5----3-3-3---3-3-------5-----3-3-3----3-3---------------------------------|
A-|-3----1-1-3---1-3-------3-----1-1-3----1-3---------------------------------|
E-|----------1-----1-----------------1------1---------------------------------|
Verse riff
E-|---------------------------------------------------------------------------|
B-|-5xx--3-3-1---3---1--------------------------------------------------------|
G-|-5xx--3-3-2---3---2-----play-4-times-with-verse----------------------------|
D-|-5xx--3-3-3-x-3-x-3--------------------------------------------------------|
A-|---------------------------------------------------------------------------|
E-|---------------------------------------------------------------------------|
Refrain riff:
E-|---------------------------------------------------------------------------|
B-|-3------------------------1---------------3---4-4--------------------------|
G-|-4------------------------2---------------3---3-3--------------------------|
D-|-5------------------------3-------------xx3--x3-3--------------------------|
A-|---------------------------------------------------------------------------|
E-|---------------------------------------------------------------------------|
Chorus riff
E-|---------------------------------|-----------------------------------------|
B-|-5-56-5------10-10-11------------|-----------------------------------------|
G-|-5-55-5------10-10-10----play-3x-|----5-5----------------------------------|
D-|-5-55-5------10-10-10------------|-5--5-5--3-5-----------------------------|
A-|---------------------------------|-5--3-3--3-5-----------------------------|
E-|---------------------------------|-3-------1-3-----------------------------|
Well, I'll take whatever I want
And baby, I want you
You give me something I need
Now tell me I got something for you
Refrain:
Come on, come on, come on and do it
Come on and uh, do what you do
Chorus:
I can't get enough of your love
I can't get enough of your love
I can't get enough of your love
Verse 2:
Well it's late, and I want love
Love is gonna break me in two
Gonna hang me up in the doorway
Gonna hang me up like ya do
Refrain
Chorus
Solo (the rhythym guitar keeps playing another verse, refrain, and chorus)
Chorus repeat many times
Then end with the intro.




Ваше мнение



Капча