From: Steve Throne [[email protected]]
Sent: Monday, December 29, 1997 6:20 PM

Song: 'Bad Company'
Artist: by Bad Company
Source: from the album 'Bad Company'
(I love saying that ;-) )

OK, here№s my attempt at tabbing Bad Company. It№s kinda tough since
It№s mostly bass and piano but what the hell! I№ll give it a shot.
It№s really sketchy right now but it might at least be a start....then
Again, maybe not! If anyone figures out the bass line, please send it
To me!!

Intro Piano Riff - Play quite a few times

[F#] [C#] [D#]
E------------------
B--11----6-----8---
G--11----6-----8---
D--11----6-----8---
A------------------
E------------------

Piano during verse

[A#]Comp[C#]a[D#]ny [F#]Always [F]on [C#]the [D#]run
E----------------------------------------------------
B--3-----6-----8------11---11-----10------6------8---
G--3-----6-----8------11---11-----10------6------8---
D--3-----6-----8------11---11-----10------6------8---
A----------------------------------------------------
E----------------------------------------------------

[A#]Dest[C#]i[D#]ny [F#]Ooooh [F]is the[C#]ris[D#]ing
E----------------------------------------------------
B--3-----6-----8------11---11-----10------6------8---
G--3-----6-----8------11---11-----10------6------8---
D--3-----6-----8------11---11-----10------6------8---
A----------------------------------------------------
E----------------------------------------------------

Suuuunnnnnnn........
E------------------------
B--6--x--6--x--6----8----
G--6--x--6--x--6----8----
D--6--x--6--x--6----8----
A------------------------
E------------------------

Repeat this verse riff as many times as necessary

Note* For all these piano parts you may want to just play just the D and




Ваше мнение



Капча