By: this was kinda hard cuz its on a piano. i only got the verse if i get the chorus i'll add it!
This song is awesome, enjoy...

e|------------------|-------------------------------------|
B|------------------|-------------------------------------|
G|------------------|-------------------------------------|
D|------------------|-------------------------------------|
A|-1-4-6--9-8-6-4-1-|-1-4-6--9-8-4-8-6---3----------------|--- repeat several times
E|--------------------------------------------------------|
you can also move it up a fret if you think it sounds better
like this...
e|-------------------|------------------------------------|
B|-------------------|------------------------------------|
G|-------------------|------------------------------------|
D|-------------------|------------------------------------|
A|-2-5-7--10-9-7-5-2-|-2-5-7--10-9-5-9-7---5--------------|
E|-------------------|------------------------------------|

And you can play power chords insted of just one note

e|---------------------|----------------------------------|
B|---------------------|----------------------------------|
G|-3-6-8---11-10-8-6-3-|-3-6-8--11-10-6-10-8--------------|
D|-3-6-8---11-10-8-6-3-|-3-6-8--11-10-6-10-8--------------|
A|-1-4-6---9--8--6-4-1-|-1-4-6--9--8--4-8--6--------------|
E|---------------------|----------------------------------|




Ваше мнение



Капча